  0
SECTION
  2
HEADER
  9
$ACADVER
  1
AC1015
  9
$ACADMAINTVER
 70
     6
  9
$DWGCODEPAGE
  3
ANSI_1252
  9
$INSBASE
 10
0.0
 20
0.0
 30
0.0
  9
$EXTMIN
 10
0.0
 20
0.0
 30
0.0
  9
$EXTMAX
 10
11.0
 20
8.5
 30
0.0
  9
$LIMMIN
 10
0.0
 20
0.0
  9
$LIMMAX
 10
11.0
 20
8.5
  9
$ORTHOMODE
 70
     0
  9
$REGENMODE
 70
     1
  9
$FILLMODE
 70
     1
  9
$QTEXTMODE
 70
     0
  9
$MIRRTEXT
 70
     1
  9
$LTSCALE
 40
1.0
  9
$ATTMODE
 70
     1
  9
$TEXTSIZE
 40
0.1666666667
  9
$TRACEWID
 40
0.05
  9
$TEXTSTYLE
  7
Standard
  9
$CLAYER
  8
0
  9
$CELTYPE
  6
ByLayer
  9
$CECOLOR
 62
   256
  9
$CELTSCALE
 40
1.0
  9
$DISPSILH
 70
     0
  9
$DIMSCALE
 40
1.0
  9
$DIMASZ
 40
0.09
  9
$DIMEXO
 40
0.05
  9
$DIMDLI
 40
0.38
  9
$DIMRND
 40
0.0
  9
$DIMDLE
 40
0.0
  9
$DIMEXE
 40
0.0625
  9
$DIMTP
 40
0.0
  9
$DIMTM
 40
0.0
  9
$DIMTXT
 40
0.1666666667
  9
$DIMCEN
 40
0.09
  9
$DIMTSZ
 40
0.0
  9
$DIMTOL
 70
     0
  9
$DIMLIM
 70
     0
  9
$DIMTIH
 70
     1
  9
$DIMTOH
 70
     1
  9
$DIMSE1
 70
     0
  9
$DIMSE2
 70
     0
  9
$DIMTAD
 70
     0
  9
$DIMZIN
 70
     0
  9
$DIMBLK
  1

  9
$DIMASO
 70
     1
  9
$DIMSHO
 70
     1
  9
$DIMPOST
  1

  9
$DIMAPOST
  1

  9
$DIMALT
 70
     0
  9
$DIMALTD
 70
     2
  9
$DIMALTF
 40
25.4
  9
$DIMLFAC
 40
1.0
  9
$DIMTOFL
 70
     0
  9
$DIMTVP
 40
0.0
  9
$DIMTIX
 70
     0
  9
$DIMSOXD
 70
     0
  9
$DIMSAH
 70
     0
  9
$DIMBLK1
  1

  9
$DIMBLK2
  1

  9
$DIMSTYLE
  2
Standard
  9
$DIMCLRD
 70
     0
  9
$DIMCLRE
 70
     0
  9
$DIMCLRT
 70
     0
  9
$DIMTFAC
 40
1.0
  9
$DIMGAP
 40
0.06
  9
$DIMJUST
 70
     0
  9
$DIMSD1
 70
     0
  9
$DIMSD2
 70
     0
  9
$DIMTOLJ
 70
     1
  9
$DIMTZIN
 70
     0
  9
$DIMALTZ
 70
     0
  9
$DIMALTTZ
 70
     0
  9
$DIMUPT
 70
     0
  9
$DIMDEC
 70
     2
  9
$DIMTDEC
 70
     2
  9
$DIMALTU
 70
     2
  9
$DIMALTTD
 70
     2
  9
$DIMTXSTY
  7
Standard
  9
$DIMAUNIT
 70
     0
  9
$DIMADEC
 70
     0
  9
$DIMALTRND
 40
0.0
  9
$DIMAZIN
 70
     0
  9
$DIMDSEP
 70
    46
  9
$DIMATFIT
 70
     3
  9
$DIMFRAC
 70
     0
  9
$DIMLDRBLK
  1

  9
$DIMLUNIT
 70
     2
  9
$DIMLWD
 70
    -2
  9
$DIMLWE
 70
    -2
  9
$DIMTMOVE
 70
     0
  9
$LUNITS
 70
     2
  9
$LUPREC
 70
     2
  9
$SKETCHINC
 40
0.1
  9
$FILLETRAD
 40
0.5
  9
$AUNITS
 70
     0
  9
$AUPREC
 70
     0
  9
$MENU
  1
.
  9
$ELEVATION
 40
0.0
  9
$PELEVATION
 40
0.0
  9
$THICKNESS
 40
0.0
  9
$LIMCHECK
 70
     0
  9
$CHAMFERA
 40
0.5
  9
$CHAMFERB
 40
0.5
  9
$CHAMFERC
 40
1.0
  9
$CHAMFERD
 40
0.0
  9
$SKPOLY
 70
     0
  9
$TDCREATE
 40
2455764.561289236
  9
$TDUCREATE
 40
2455764.769622569
  9
$TDUPDATE
 40
2455764.561289248
  9
$TDUUPDATE
 40
2455764.769622581
  9
$TDINDWG
 40
0.0000000116
  9
$TDUSRTIMER
 40
0.0000000116
  9
$USRTIMER
 70
     1
  9
$ANGBASE
 50
0.0
  9
$ANGDIR
 70
     0
  9
$PDMODE
 70
     0
  9
$PDSIZE
 40
-1.0
  9
$PLINEWID
 40
0.0
  9
$SPLFRAME
 70
     0
  9
$SPLINETYPE
 70
     6
  9
$SPLINESEGS
 70
     8
  9
$HANDSEED
  5
473
  9
$SURFTAB1
 70
     6
  9
$SURFTAB2
 70
     6
  9
$SURFTYPE
 70
     6
  9
$SURFU
 70
     6
  9
$SURFV
 70
     6
  9
$UCSBASE
  2

  9
$UCSNAME
  2

  9
$UCSORG
 10
0.0
 20
0.0
 30
0.0
  9
$UCSXDIR
 10
1.0
 20
0.0
 30
0.0
  9
$UCSYDIR
 10
0.0
 20
1.0
 30
0.0
  9
$UCSORTHOREF
  2

  9
$UCSORTHOVIEW
 70
     0
  9
$UCSORGTOP
 10
0.0
 20
0.0
 30
0.0
  9
$UCSORGBOTTOM
 10
0.0
 20
0.0
 30
0.0
  9
$UCSORGLEFT
 10
0.0
 20
0.0
 30
0.0
  9
$UCSORGRIGHT
 10
0.0
 20
0.0
 30
0.0
  9
$UCSORGFRONT
 10
0.0
 20
0.0
 30
0.0
  9
$UCSORGBACK
 10
0.0
 20
0.0
 30
0.0
  9
$PUCSBASE
  2

  9
$PUCSNAME
  2

  9
$PUCSORG
 10
0.0
 20
0.0
 30
0.0
  9
$PUCSXDIR
 10
1.0
 20
0.0
 30
0.0
  9
$PUCSYDIR
 10
0.0
 20
1.0
 30
0.0
  9
$PUCSORTHOREF
  2

  9
$PUCSORTHOVIEW
 70
     0
  9
$PUCSORGTOP
 10
0.0
 20
0.0
 30
0.0
  9
$PUCSORGBOTTOM
 10
0.0
 20
0.0
 30
0.0
  9
$PUCSORGLEFT
 10
0.0
 20
0.0
 30
0.0
  9
$PUCSORGRIGHT
 10
0.0
 20
0.0
 30
0.0
  9
$PUCSORGFRONT
 10
0.0
 20
0.0
 30
0.0
  9
$PUCSORGBACK
 10
0.0
 20
0.0
 30
0.0
  9
$USERI1
 70
     0
  9
$USERI2
 70
     0
  9
$USERI3
 70
     0
  9
$USERI4
 70
     0
  9
$USERI5
 70
     0
  9
$USERR1
 40
0.0
  9
$USERR2
 40
0.0
  9
$USERR3
 40
0.0
  9
$USERR4
 40
0.0
  9
$USERR5
 40
0.0
  9
$WORLDVIEW
 70
     1
  9
$SHADEDGE
 70
     3
  9
$SHADEDIF
 70
    70
  9
$TILEMODE
 70
     1
  9
$MAXACTVP
 70
    64
  9
$PINSBASE
 10
0.0
 20
0.0
 30
0.0
  9
$PLIMCHECK
 70
     0
  9
$PEXTMIN
 10
1.0000000000E+20
 20
1.0000000000E+20
 30
1.0000000000E+20
  9
$PEXTMAX
 10
-1.0000000000E+20
 20
-1.0000000000E+20
 30
-1.0000000000E+20
  9
$PLIMMIN
 10
0.0
 20
0.0
  9
$PLIMMAX
 10
12.0
 20
9.0
  9
$UNITMODE
 70
     0
  9
$VISRETAIN
 70
     1
  9
$PLINEGEN
 70
     0
  9
$PSLTSCALE
 70
     1
  9
$TREEDEPTH
 70
  3020
  9
$CMLSTYLE
  2
Standard
  9
$CMLJUST
 70
     0
  9
$CMLSCALE
 40
1.0
  9
$PROXYGRAPHICS
 70
     1
  9
$MEASUREMENT
 70
     0
  9
$CELWEIGHT
370
    -1
  9
$ENDCAPS
280
     0
  9
$JOINSTYLE
280
     0
  9
$LWDISPLAY
290
     1
  9
$INSUNITS
 70
     1
  9
$HYPERLINKBASE
  1

  9
$STYLESHEET
  1

  9
$XEDIT
290
     1
  9
$CEPSNTYPE
380
     0
  9
$PSTYLEMODE
290
     1
  9
$FINGERPRINTGUID
  2
{E4F50ED2-2B5A-4671-A862-B46B9BB326D4}
  9
$VERSIONGUID
  2
{FAEB1C32-E019-11D5-929B-00C0DF256EC4}
  9
$EXTNAMES
290
     1
  9
$PSVPSCALE
 40
0.0
  9
$OLESTARTUP
290
     0
  0
ENDSEC
  0
SECTION
  2
CLASSES
  0
CLASS
  1
ACDBDICTIONARYWDFLT
  2
AcDbDictionaryWithDefault
  3
ObjectDBX Classes
 90
        0
280
     0
281
     0
  0
CLASS
  1
VISUALSTYLE
  2
AcDbVisualStyle
  3
ObjectDBX Classes
 90
     4095
280
     0
281
     0
  0
CLASS
  1
MATERIAL
  2
AcDbMaterial
  3
ObjectDBX Classes
 90
     1153
280
     0
281
     0
  0
CLASS
  1
ACDBPLACEHOLDER
  2
AcDbPlaceHolder
  3
ObjectDBX Classes
 90
        0
280
     0
281
     0
  0
CLASS
  1
LAYOUT
  2
AcDbLayout
  3
ObjectDBX Classes
 90
        0
280
     0
281
     0
  0
ENDSEC
  0
SECTION
  2
TABLES
  0
TABLE
  2
VPORT
  5
8
330
0
100
AcDbSymbolTable
 70
     1
  0
VPORT
  5
29
330
8
100
AcDbSymbolTableRecord
100
AcDbViewportTableRecord
  2
*Active
 70
     0
 10
0.0
 20
0.0
 11
1.0
 21
1.0
 12
5.5
 22
4.25
 13
0.0
 23
0.0
 14
0.5
 24
0.5
 15
0.5
 25
0.5
 16
0.0
 26
0.0
 36
1.0
 17
0.0
 27
0.0
 37
0.0
 40
8.5
 41
1.2941176471
 42
50.0
 43
0.0
 44
0.0
 50
0.0
 51
0.0
 71
     0
 72
  2000
 73
     1
 74
     3
 75
     0
 76
     0
 77
     0
 78
     0
281
     0
 65
     1
110
0.0
120
0.0
130
0.0
111
1.0
121
0.0
131
0.0
112
0.0
122
1.0
132
0.0
 79
     0
146
0.0
  0
ENDTAB
  0
TABLE
  2
LTYPE
  5
5
330
0
100
AcDbSymbolTable
 70
     6
  0
LTYPE
  5
14
330
5
100
AcDbSymbolTableRecord
100
AcDbLinetypeTableRecord
  2
ByBlock
 70
     0
  3

 72
    65
 73
     0
 40
0.0
  0
LTYPE
  5
15
330
5
100
AcDbSymbolTableRecord
100
AcDbLinetypeTableRecord
  2
ByLayer
 70
     0
  3

 72
    65
 73
     0
 40
0.0
  0
LTYPE
  5
16
330
5
100
AcDbSymbolTableRecord
100
AcDbLinetypeTableRecord
  2
Continuous
 70
     0
  3
Solid line
 72
    65
 73
     0
 40
0.0
  0
LTYPE
  5
3F
330
5
100
AcDbSymbolTableRecord
100
AcDbLinetypeTableRecord
  2
HIDDEN
 70
     0
  3
Hidden __ __ __ __ __ __ __ __ __ __ __ __ __ __
 72
    65
 73
     2
 40
0.075
 49
0.05
 74
     0
 49
-0.025
 74
     0
  0
LTYPE
  5
40
330
5
100
AcDbSymbolTableRecord
100
AcDbLinetypeTableRecord
  2
PHANTOM
 70
     0
  3
Phantom ______  __  __  ______  __  __  ______
 72
    65
 73
     6
 40
0.5
 49
0.25
 74
     0
 49
-0.05
 74
     0
 49
0.05
 74
     0
 49
-0.05
 74
     0
 49
0.05
 74
     0
 49
-0.05
 74
     0
  0
LTYPE
  5
41
330
5
100
AcDbSymbolTableRecord
100
AcDbLinetypeTableRecord
  2
CENTER
 70
     0
  3
Center ____ _ ____ _ ____ _ ____ _ ____ _ ____
 72
    65
 73
     4
 40
0.4
 49
0.25
 74
     0
 49
-0.05
 74
     0
 49
0.05
 74
     0
 49
-0.05
 74
     0
  0
LTYPE
  5
42
330
5
100
AcDbSymbolTableRecord
100
AcDbLinetypeTableRecord
  2
CENTERX2
 70
     0
  3
Center (2x) ________  __  ________  __  _____
 72
    65
 73
     4
 40
0.8
 49
0.5
 74
     0
 49
-0.1
 74
     0
 49
0.1
 74
     0
 49
-0.1
 74
     0
  0
LTYPE
  5
43
330
5
100
AcDbSymbolTableRecord
100
AcDbLinetypeTableRecord
  2
DOT2
 70
     0
  3
Dot (.5x) ........................................
 72
    65
 73
     2
 40
0.025
 49
0.0
 74
     0
 49
-0.025
 74
     0
  0
ENDTAB
  0
TABLE
  2
LAYER
  5
2
330
0
100
AcDbSymbolTable
 70
     2
  0
LAYER
  5
10
330
2
100
AcDbSymbolTableRecord
100
AcDbLayerTableRecord
  2
0
 70
     0
 62
     7
  6
Continuous
370
    -3
390
F
  0
LAYER
  5
44
330
2
100
AcDbSymbolTableRecord
100
AcDbLayerTableRecord
  2
FORMAT
 70
     0
 62
     7
  6
Continuous
370
    -3
390
F
  0
ENDTAB
  0
TABLE
  2
STYLE
  5
3
330
0
100
AcDbSymbolTable
 70
     2
  0
STYLE
  5
11
330
3
100
AcDbSymbolTableRecord
100
AcDbTextStyleTableRecord
  2
Standard
 70
     0
 40
0.0
 41
1.0
 50
0.0
 71
     0
 42
0.2
  3
txt
  4

  0
STYLE
  5
471
330
3
100
AcDbSymbolTableRecord
100
AcDbTextStyleTableRecord
  2
SLDTEXTSTYLE0
 70
     0
 40
0.0
 41
0.605
 50
0.0
 71
     0
 42
0.2
  3
TXT
  4

  0
ENDTAB
  0
TABLE
  2
VIEW
  5
6
330
0
100
AcDbSymbolTable
 70
     0
  0
ENDTAB
  0
TABLE
  2
UCS
  5
7
330
0
100
AcDbSymbolTable
 70
     0
  0
ENDTAB
  0
TABLE
  2
APPID
  5
9
330
0
100
AcDbSymbolTable
 70
     1
  0
APPID
  5
12
330
9
100
AcDbSymbolTableRecord
100
AcDbRegAppTableRecord
  2
ACAD
 70
     0
  0
ENDTAB
  0
TABLE
  2
DIMSTYLE
  5
A
330
0
100
AcDbSymbolTable
 70
     1
100
AcDbDimStyleTable
  0
DIMSTYLE
105
27
330
A
100
AcDbSymbolTableRecord
100
AcDbDimStyleTableRecord
  2
Standard
 70
     0
178
     0
340
11
  0
ENDTAB
  0
TABLE
  2
BLOCK_RECORD
  5
1
330
0
100
AcDbSymbolTable
 70
     1
  0
BLOCK_RECORD
  5
1F
330
1
100
AcDbSymbolTableRecord
100
AcDbBlockTableRecord
  2
*Model_Space
340
22
  0
BLOCK_RECORD
  5
1B
330
1
100
AcDbSymbolTableRecord
100
AcDbBlockTableRecord
  2
*Paper_Space
340
1E
  0
BLOCK_RECORD
  5
23
330
1
100
AcDbSymbolTableRecord
100
AcDbBlockTableRecord
  2
*Paper_Space0
340
26
  0
ENDTAB
  0
ENDSEC
  0
SECTION
  2
BLOCKS
  0
BLOCK
  5
20
330
1F
100
AcDbEntity
  8
0
100
AcDbBlockBegin
  2
*Model_Space
 70
     0
 10
0.0
 20
0.0
 30
0.0
  3
*Model_Space
  1

  0
ENDBLK
  5
21
330
1F
100
AcDbEntity
  8
0
100
AcDbBlockEnd
  0
BLOCK
  5
1C
330
1B
100
AcDbEntity
 67
     1
  8
0
100
AcDbBlockBegin
  2
*Paper_Space
 70
     0
 10
0.0
 20
0.0
 30
0.0
  3
*Paper_Space
  1

  0
ENDBLK
  5
1D
330
1B
100
AcDbEntity
 67
     1
  8
0
100
AcDbBlockEnd
  0
BLOCK
  5
24
330
23
100
AcDbEntity
  8
0
100
AcDbBlockBegin
  2
*Paper_Space0
 70
     0
 10
0.0
 20
0.0
 30
0.0
  3
*Paper_Space0
  1

  0
ENDBLK
  5
25
330
23
100
AcDbEntity
  8
0
100
AcDbBlockEnd
  0
ENDSEC
  0
SECTION
  2
ENTITIES
  0
LINE
  5
45
330
1F
100
AcDbEntity
  8
0
  6
Continuous
 62
     7
370
    30
100
AcDbLine
 10
7.7731264308
 20
3.7982655362
 30
0.0
 11
7.7696858172
 21
3.8022235105
 31
0.0
  0
LINE
  5
46
330
1F
100
AcDbEntity
  8
0
  6
Continuous
 62
     7
370
    30
100
AcDbLine
 10
7.6329823298
 20
3.8022235105
 30
0.0
 11
7.6295417162
 21
3.7982655362
 31
0.0
  0
LINE
  5
47
330
1F
100
AcDbEntity
  8
0
  6
Continuous
 62
     7
370
    30
100
AcDbLine
 10
7.7843339813
 20
4.5884584945
 30
0.0
 11
7.7623340888
 21
4.6011601944
 31
0.0
  0
LINE
  5
48
330
1F
100
AcDbEntity
  8
0
  6
Continuous
 62
     7
370
    30
100
AcDbLine
 10
7.6403340582
 20
4.6011601944
 30
0.0
 11
7.618334019
 21
4.5884584945
 31
0.0
  0
LINE
  5
49
330
1F
100
AcDbEntity
  8
0
  6
Continuous
 62
     7
370
    30
100
AcDbLine
 10
7.7843339813
 20
4.5329029396
 30
0.0
 11
7.7623340888
 21
4.5456046395
 31
0.0
  0
LINE
  5
4A
330
1F
100
AcDbEntity
  8
0
  6
Continuous
 62
     7
370
    30
100
AcDbLine
 10
7.6403340582
 20
4.5456046395
 30
0.0
 11
7.618334019
 21
4.5329029396
 31
0.0
  0
LINE
  5
4B
330
1F
100
AcDbEntity
  8
0
  6
Continuous
 62
     7
370
    30
100
AcDbLine
 10
7.7843339813
 20
3.9217918359
 30
0.0
 11
7.7623340888
 21
3.9344935358
 31
0.0
  0
LINE
  5
4C
330
1F
100
AcDbEntity
  8
0
  6
Continuous
 62
     7
370
    30
100
AcDbLine
 10
7.6403340582
 20
3.9344935358
 30
0.0
 11
7.618334019
 21
3.9217918359
 31
0.0
  0
LINE
  5
4D
330
1F
100
AcDbEntity
  8
0
  6
Continuous
 62
     7
370
    30
100
AcDbLine
 10
7.618334019
 20
3.9773473541
 30
0.0
 11
7.6403340582
 21
3.9646456542
 31
0.0
  0
LINE
  5
4E
330
1F
100
AcDbEntity
  8
0
  6
Continuous
 62
     7
370
    30
100
AcDbLine
 10
7.7623340888
 20
3.9646456542
 30
0.0
 11
7.7843339813
 21
3.9773473541
 31
0.0
  0
LINE
  5
4F
330
1F
100
AcDbEntity
  8
0
  6
Continuous
 62
     7
370
    30
100
AcDbLine
 10
7.618334019
 20
3.8662362443
 30
0.0
 11
7.6403340582
 21
3.8535345444
 31
0.0
  0
LINE
  5
50
330
1F
100
AcDbEntity
  8
0
  6
Continuous
 62
     7
370
    30
100
AcDbLine
 10
7.7623340888
 20
3.8535345444
 30
0.0
 11
7.7843339813
 21
3.8662362443
 31
0.0
  0
LINE
  5
51
330
1F
100
AcDbEntity
  8
0
  6
Continuous
 62
     7
370
    30
100
AcDbLine
 10
7.618334019
 20
3.8106807261
 30
0.0
 11
7.6329823298
 21
3.8022235105
 31
0.0
  0
LINE
  5
52
330
1F
100
AcDbEntity
  8
0
  6
Continuous
 62
     7
370
    30
100
AcDbLine
 10
7.7696858172
 20
3.8022235105
 30
0.0
 11
7.7843339813
 21
3.8106807261
 31
0.0
  0
LINE
  5
53
330
1F
100
AcDbEntity
  8
0
  6
Continuous
 62
     7
370
    30
100
AcDbLine
 10
7.7843339813
 20
3.8662362443
 30
0.0
 11
7.7623340888
 21
3.8789379443
 31
0.0
  0
LINE
  5
54
330
1F
100
AcDbEntity
  8
0
  6
Continuous
 62
     7
370
    30
100
AcDbLine
 10
7.6403340582
 20
3.8789379443
 30
0.0
 11
7.618334019
 21
3.8662362443
 31
0.0
  0
LINE
  5
55
330
1F
100
AcDbEntity
  8
0
  6
Continuous
 62
     7
370
    30
100
AcDbLine
 10
7.7843339813
 20
4.8662362678
 30
0.0
 11
7.7623340888
 21
4.8789379734
 31
0.0
  0
LINE
  5
56
330
1F
100
AcDbEntity
  8
0
  6
Continuous
 62
     7
370
    30
100
AcDbLine
 10
7.6403340582
 20
4.8789379734
 30
0.0
 11
7.618334019
 21
4.8662362678
 31
0.0
  0
LINE
  5
57
330
1F
100
AcDbEntity
  8
0
  6
Continuous
 62
     7
370
    30
100
AcDbLine
 10
7.7843339813
 20
4.6440140494
 30
0.0
 11
7.7623340888
 21
4.6567157493
 31
0.0
  0
LINE
  5
58
330
1F
100
AcDbEntity
  8
0
  6
Continuous
 62
     7
370
    30
100
AcDbLine
 10
7.6403340582
 20
4.6567157493
 30
0.0
 11
7.618334019
 21
4.6440140494
 31
0.0
  0
LINE
  5
59
330
1F
100
AcDbEntity
  8
0
  6
Continuous
 62
     7
370
    30
100
AcDbLine
 10
7.618334019
 20
4.810680714
 30
0.0
 11
7.6403340582
 21
4.7979790049
 31
0.0
  0
LINE
  5
5A
330
1F
100
AcDbEntity
  8
0
  6
Continuous
 62
     7
370
    30
100
AcDbLine
 10
7.7623340888
 20
4.7979790049
 30
0.0
 11
7.7843339813
 21
4.810680714
 31
0.0
  0
LINE
  5
5B
330
1F
100
AcDbEntity
  8
0
  6
Continuous
 62
     7
370
    30
100
AcDbLine
 10
7.7843339813
 20
3.8106807261
 30
0.0
 11
7.7623340888
 21
3.823382426
 31
0.0
  0
LINE
  5
5C
330
1F
100
AcDbEntity
  8
0
  6
Continuous
 62
     7
370
    30
100
AcDbLine
 10
7.6403340582
 20
3.823382426
 30
0.0
 11
7.618334019
 21
3.8106807261
 31
0.0
  0
LINE
  5
5D
330
1F
100
AcDbEntity
  8
0
  6
Continuous
 62
     7
370
    30
100
AcDbLine
 10
7.7843339813
 20
3.9773473541
 30
0.0
 11
7.7623340888
 21
3.990049054
 31
0.0
  0
LINE
  5
5E
330
1F
100
AcDbEntity
  8
0
  6
Continuous
 62
     7
370
    30
100
AcDbLine
 10
7.6403340582
 20
3.990049054
 30
0.0
 11
7.618334019
 21
3.9773473541
 31
0.0
  0
LINE
  5
5F
330
1F
100
AcDbEntity
  8
0
  6
Continuous
 62
     7
370
    30
100
AcDbLine
 10
7.7843339813
 20
4.7551251591
 30
0.0
 11
7.7623340888
 21
4.7678268591
 31
0.0
  0
LINE
  5
60
330
1F
100
AcDbEntity
  8
0
  6
Continuous
 62
     7
370
    30
100
AcDbLine
 10
7.6403340582
 20
4.7678268591
 30
0.0
 11
7.618334019
 21
4.7551251591
 31
0.0
  0
LINE
  5
61
330
1F
100
AcDbEntity
  8
0
  6
Continuous
 62
     7
370
    30
100
AcDbLine
 10
7.618334019
 20
4.6995696042
 30
0.0
 11
7.6403340582
 21
4.686867886
 31
0.0
  0
LINE
  5
62
330
1F
100
AcDbEntity
  8
0
  6
Continuous
 62
     7
370
    30
100
AcDbLine
 10
7.7623340888
 20
4.686867886
 30
0.0
 11
7.7843339813
 21
4.6995696042
 31
0.0
  0
LINE
  5
63
330
1F
100
AcDbEntity
  8
0
  6
Continuous
 62
     7
370
    30
100
AcDbLine
 10
7.618334019
 20
4.5329029396
 30
0.0
 11
7.6403340582
 21
4.5202012397
 31
0.0
  0
LINE
  5
64
330
1F
100
AcDbEntity
  8
0
  6
Continuous
 62
     7
370
    30
100
AcDbLine
 10
7.7623340888
 20
4.5202012397
 30
0.0
 11
7.7843339813
 21
4.5329029396
 31
0.0
  0
LINE
  5
65
330
1F
100
AcDbEntity
  8
0
  6
Continuous
 62
     7
370
    30
100
AcDbLine
 10
7.7843339813
 20
4.810680714
 30
0.0
 11
7.7623340888
 21
4.8233824185
 31
0.0
  0
LINE
  5
66
330
1F
100
AcDbEntity
  8
0
  6
Continuous
 62
     7
370
    30
100
AcDbLine
 10
7.6403340582
 20
4.8233824185
 30
0.0
 11
7.618334019
 21
4.810680714
 31
0.0
  0
LINE
  5
67
330
1F
100
AcDbEntity
  8
0
  6
Continuous
 62
     7
370
    30
100
AcDbLine
 10
7.618334019
 20
4.0329029456
 30
0.0
 11
7.6403340582
 21
4.0202012457
 31
0.0
  0
LINE
  5
68
330
1F
100
AcDbEntity
  8
0
  6
Continuous
 62
     7
370
    30
100
AcDbLine
 10
7.7623340888
 20
4.0202012457
 30
0.0
 11
7.7843339813
 21
4.0329029456
 31
0.0
  0
LINE
  5
69
330
1F
100
AcDbEntity
  8
0
  6
Continuous
 62
     7
370
    30
100
AcDbLine
 10
7.618334019
 20
4.7551251591
 30
0.0
 11
7.6403340582
 21
4.74242345
 31
0.0
  0
LINE
  5
6A
330
1F
100
AcDbEntity
  8
0
  6
Continuous
 62
     7
370
    30
100
AcDbLine
 10
7.7623340888
 20
4.74242345
 30
0.0
 11
7.7843339813
 21
4.7551251591
 31
0.0
  0
LINE
  5
6B
330
1F
100
AcDbEntity
  8
0
  6
Continuous
 62
     7
370
    30
100
AcDbLine
 10
7.7843339813
 20
4.0884584639
 30
0.0
 11
7.7623340888
 21
4.1011601638
 31
0.0
  0
LINE
  5
6C
330
1F
100
AcDbEntity
  8
0
  6
Continuous
 62
     7
370
    30
100
AcDbLine
 10
7.6403340582
 20
4.1011601638
 30
0.0
 11
7.618334019
 21
4.0884584639
 31
0.0
  0
LINE
  5
6D
330
1F
100
AcDbEntity
  8
0
  6
Continuous
 62
     7
370
    30
100
AcDbLine
 10
7.618334019
 20
4.2551251652
 30
0.0
 11
7.6403340582
 21
4.2424234652
 31
0.0
  0
LINE
  5
6E
330
1F
100
AcDbEntity
  8
0
  6
Continuous
 62
     7
370
    30
100
AcDbLine
 10
7.7623340888
 20
4.2424234652
 30
0.0
 11
7.7843339813
 21
4.2551251652
 31
0.0
  0
LINE
  5
6F
330
1F
100
AcDbEntity
  8
0
  6
Continuous
 62
     7
370
    30
100
AcDbLine
 10
7.618334019
 20
4.1995695736
 30
0.0
 11
7.6403340582
 21
4.1868678737
 31
0.0
  0
LINE
  5
70
330
1F
100
AcDbEntity
  8
0
  6
Continuous
 62
     7
370
    30
100
AcDbLine
 10
7.7623340888
 20
4.1868678737
 30
0.0
 11
7.7843339813
 21
4.1995695736
 31
0.0
  0
LINE
  5
71
330
1F
100
AcDbEntity
  8
0
  6
Continuous
 62
     7
370
    30
100
AcDbLine
 10
7.7843339813
 20
4.3662362749
 30
0.0
 11
7.7623340888
 21
4.3789379749
 31
0.0
  0
LINE
  5
72
330
1F
100
AcDbEntity
  8
0
  6
Continuous
 62
     7
370
    30
100
AcDbLine
 10
7.6403340582
 20
4.3789379749
 30
0.0
 11
7.618334019
 21
4.3662362749
 31
0.0
  0
LINE
  5
73
330
1F
100
AcDbEntity
  8
0
  6
Continuous
 62
     7
370
    30
100
AcDbLine
 10
7.618334019
 20
4.5884584945
 30
0.0
 11
7.6403340582
 21
4.5757567762
 31
0.0
  0
LINE
  5
74
330
1F
100
AcDbEntity
  8
0
  6
Continuous
 62
     7
370
    30
100
AcDbLine
 10
7.7623340888
 20
4.5757567762
 30
0.0
 11
7.7843339813
 21
4.5884584945
 31
0.0
  0
LINE
  5
75
330
1F
100
AcDbEntity
  8
0
  6
Continuous
 62
     7
370
    30
100
AcDbLine
 10
7.7843339813
 20
4.6995696042
 30
0.0
 11
7.7623340888
 21
4.7122713042
 31
0.0
  0
LINE
  5
76
330
1F
100
AcDbEntity
  8
0
  6
Continuous
 62
     7
370
    30
100
AcDbLine
 10
7.6403340582
 20
4.7122713042
 30
0.0
 11
7.618334019
 21
4.6995696042
 31
0.0
  0
LINE
  5
77
330
1F
100
AcDbEntity
  8
0
  6
Continuous
 62
     7
370
    30
100
AcDbLine
 10
7.618334019
 20
4.6440140494
 30
0.0
 11
7.6403340582
 21
4.6313123311
 31
0.0
  0
LINE
  5
78
330
1F
100
AcDbEntity
  8
0
  6
Continuous
 62
     7
370
    30
100
AcDbLine
 10
7.7623340888
 20
4.6313123311
 30
0.0
 11
7.7843339813
 21
4.6440140494
 31
0.0
  0
LINE
  5
79
330
1F
100
AcDbEntity
  8
0
  6
Continuous
 62
     7
370
    30
100
AcDbLine
 10
7.618334019
 20
3.9217918359
 30
0.0
 11
7.6403340582
 21
3.9090901359
 31
0.0
  0
LINE
  5
7A
330
1F
100
AcDbEntity
  8
0
  6
Continuous
 62
     7
370
    30
100
AcDbLine
 10
7.7623340888
 20
3.9090901359
 30
0.0
 11
7.7843339813
 21
3.9217918359
 31
0.0
  0
LINE
  5
7B
330
1F
100
AcDbEntity
  8
0
  6
Continuous
 62
     7
370
    30
100
AcDbLine
 10
7.618334019
 20
4.8662362678
 30
0.0
 11
7.6403340582
 21
4.8535345621
 31
0.0
  0
LINE
  5
7C
330
1F
100
AcDbEntity
  8
0
  6
Continuous
 62
     7
370
    30
100
AcDbLine
 10
7.7623340888
 20
4.8535345621
 30
0.0
 11
7.7843339813
 21
4.8662362678
 31
0.0
  0
LINE
  5
7D
330
1F
100
AcDbEntity
  8
0
  6
Continuous
 62
     7
370
    30
100
AcDbLine
 10
7.618334019
 20
4.1440140554
 30
0.0
 11
7.6403340582
 21
4.1313123555
 31
0.0
  0
LINE
  5
7E
330
1F
100
AcDbEntity
  8
0
  6
Continuous
 62
     7
370
    30
100
AcDbLine
 10
7.7623340888
 20
4.1313123555
 30
0.0
 11
7.7843339813
 21
4.1440140554
 31
0.0
  0
LINE
  5
7F
330
1F
100
AcDbEntity
  8
0
  6
Continuous
 62
     7
370
    30
100
AcDbLine
 10
7.618334019
 20
4.4217918298
 30
0.0
 11
7.6403340582
 21
4.4090901299
 31
0.0
  0
LINE
  5
80
330
1F
100
AcDbEntity
  8
0
  6
Continuous
 62
     7
370
    30
100
AcDbLine
 10
7.7623340888
 20
4.4090901299
 30
0.0
 11
7.7843339813
 21
4.4217918298
 31
0.0
  0
LINE
  5
81
330
1F
100
AcDbEntity
  8
0
  6
Continuous
 62
     7
370
    30
100
AcDbLine
 10
7.618334019
 20
4.3662362749
 30
0.0
 11
7.6403340582
 21
4.353534575
 31
0.0
  0
LINE
  5
82
330
1F
100
AcDbEntity
  8
0
  6
Continuous
 62
     7
370
    30
100
AcDbLine
 10
7.7623340888
 20
4.353534575
 30
0.0
 11
7.7843339813
 21
4.3662362749
 31
0.0
  0
LINE
  5
83
330
1F
100
AcDbEntity
  8
0
  6
Continuous
 62
     7
370
    30
100
AcDbLine
 10
7.618334019
 20
4.4773473847
 30
0.0
 11
7.6403340582
 21
4.4646456848
 31
0.0
  0
LINE
  5
84
330
1F
100
AcDbEntity
  8
0
  6
Continuous
 62
     7
370
    30
100
AcDbLine
 10
7.7623340888
 20
4.4646456848
 30
0.0
 11
7.7843339813
 21
4.4773473847
 31
0.0
  0
LINE
  5
85
330
1F
100
AcDbEntity
  8
0
  6
Continuous
 62
     7
370
    30
100
AcDbLine
 10
7.7843339813
 20
4.1995695736
 30
0.0
 11
7.7623340888
 21
4.2122712736
 31
0.0
  0
LINE
  5
86
330
1F
100
AcDbEntity
  8
0
  6
Continuous
 62
     7
370
    30
100
AcDbLine
 10
7.6403340582
 20
4.2122712736
 30
0.0
 11
7.618334019
 21
4.1995695736
 31
0.0
  0
LINE
  5
87
330
1F
100
AcDbEntity
  8
0
  6
Continuous
 62
     7
370
    30
100
AcDbLine
 10
7.7843339813
 20
4.1440140554
 30
0.0
 11
7.7623340888
 21
4.1567157553
 31
0.0
  0
LINE
  5
88
330
1F
100
AcDbEntity
  8
0
  6
Continuous
 62
     7
370
    30
100
AcDbLine
 10
7.6403340582
 20
4.1567157553
 30
0.0
 11
7.618334019
 21
4.1440140554
 31
0.0
  0
LINE
  5
89
330
1F
100
AcDbEntity
  8
0
  6
Continuous
 62
     7
370
    30
100
AcDbLine
 10
7.7843339813
 20
4.2551251652
 30
0.0
 11
7.7623340888
 21
4.2678268651
 31
0.0
  0
LINE
  5
8A
330
1F
100
AcDbEntity
  8
0
  6
Continuous
 62
     7
370
    30
100
AcDbLine
 10
7.6403340582
 20
4.2678268651
 30
0.0
 11
7.618334019
 21
4.2551251652
 31
0.0
  0
LINE
  5
8B
330
1F
100
AcDbEntity
  8
0
  6
Continuous
 62
     7
370
    30
100
AcDbLine
 10
7.618334019
 20
4.0884584639
 30
0.0
 11
7.6403340582
 21
4.0757567639
 31
0.0
  0
LINE
  5
8C
330
1F
100
AcDbEntity
  8
0
  6
Continuous
 62
     7
370
    30
100
AcDbLine
 10
7.7623340888
 20
4.0757567639
 30
0.0
 11
7.7843339813
 21
4.0884584639
 31
0.0
  0
LINE
  5
8D
330
1F
100
AcDbEntity
  8
0
  6
Continuous
 62
     7
370
    30
100
AcDbLine
 10
7.7843339813
 20
4.4773473847
 30
0.0
 11
7.7623340888
 21
4.4900490846
 31
0.0
  0
LINE
  5
8E
330
1F
100
AcDbEntity
  8
0
  6
Continuous
 62
     7
370
    30
100
AcDbLine
 10
7.6403340582
 20
4.4900490846
 30
0.0
 11
7.618334019
 21
4.4773473847
 31
0.0
  0
LINE
  5
8F
330
1F
100
AcDbEntity
  8
0
  6
Continuous
 62
     7
370
    30
100
AcDbLine
 10
7.7843339813
 20
4.0329029456
 30
0.0
 11
7.7623340888
 21
4.0456046456
 31
0.0
  0
LINE
  5
90
330
1F
100
AcDbEntity
  8
0
  6
Continuous
 62
     7
370
    30
100
AcDbLine
 10
7.6403340582
 20
4.0456046456
 30
0.0
 11
7.618334019
 21
4.0329029456
 31
0.0
  0
LINE
  5
91
330
1F
100
AcDbEntity
  8
0
  6
Continuous
 62
     7
370
    30
100
AcDbLine
 10
7.618334019
 20
4.3106807201
 30
0.0
 11
7.6403340582
 21
4.2979790201
 31
0.0
  0
LINE
  5
92
330
1F
100
AcDbEntity
  8
0
  6
Continuous
 62
     7
370
    30
100
AcDbLine
 10
7.7623340888
 20
4.2979790201
 30
0.0
 11
7.7843339813
 21
4.3106807201
 31
0.0
  0
LINE
  5
93
330
1F
100
AcDbEntity
  8
0
  6
Continuous
 62
     7
370
    30
100
AcDbLine
 10
7.7843339813
 20
4.4217918298
 30
0.0
 11
7.7623340888
 21
4.4344935298
 31
0.0
  0
LINE
  5
94
330
1F
100
AcDbEntity
  8
0
  6
Continuous
 62
     7
370
    30
100
AcDbLine
 10
7.6403340582
 20
4.4344935298
 30
0.0
 11
7.618334019
 21
4.4217918298
 31
0.0
  0
LINE
  5
95
330
1F
100
AcDbEntity
  8
0
  6
Continuous
 62
     7
370
    30
100
AcDbLine
 10
7.7843339813
 20
4.3106807201
 30
0.0
 11
7.7623340888
 21
4.32338242
 31
0.0
  0
LINE
  5
96
330
1F
100
AcDbEntity
  8
0
  6
Continuous
 62
     7
370
    30
100
AcDbLine
 10
7.6403340582
 20
4.32338242
 30
0.0
 11
7.618334019
 21
4.3106807201
 31
0.0
  0
LINE
  5
97
330
1F
100
AcDbEntity
  8
0
  6
Continuous
 62
     7
370
    30
100
AcDbLine
 10
7.7623340888
 20
4.3789379749
 30
0.0
 11
7.7623340888
 21
4.4090901299
 31
0.0
  0
LINE
  5
98
330
1F
100
AcDbEntity
  8
0
  6
Continuous
 62
     7
370
    30
100
AcDbLine
 10
7.6403340582
 20
4.4090901299
 30
0.0
 11
7.6403340582
 21
4.3789379749
 31
0.0
  0
LINE
  5
99
330
1F
100
AcDbEntity
  8
0
  6
Continuous
 62
     7
370
    30
100
AcDbLine
 10
7.7623340888
 20
4.5456046395
 30
0.0
 11
7.7623340888
 21
4.5757567762
 31
0.0
  0
LINE
  5
9A
330
1F
100
AcDbEntity
  8
0
  6
Continuous
 62
     7
370
    30
100
AcDbLine
 10
7.6403340582
 20
4.5757567762
 30
0.0
 11
7.6403340582
 21
4.5456046395
 31
0.0
  0
LINE
  5
9B
330
1F
100
AcDbEntity
  8
0
  6
Continuous
 62
     7
370
    30
100
AcDbLine
 10
7.7623340888
 20
4.8233824185
 30
0.0
 11
7.7623340888
 21
4.8535345621
 31
0.0
  0
LINE
  5
9C
330
1F
100
AcDbEntity
  8
0
  6
Continuous
 62
     7
370
    30
100
AcDbLine
 10
7.6403340582
 20
4.8535345621
 30
0.0
 11
7.6403340582
 21
4.8233824185
 31
0.0
  0
LINE
  5
9D
330
1F
100
AcDbEntity
  8
0
  6
Continuous
 62
     7
370
    30
100
AcDbLine
 10
7.7623340888
 20
4.4900490846
 30
0.0
 11
7.7623340888
 21
4.5202012397
 31
0.0
  0
LINE
  5
9E
330
1F
100
AcDbEntity
  8
0
  6
Continuous
 62
     7
370
    30
100
AcDbLine
 10
7.6403340582
 20
4.5202012397
 30
0.0
 11
7.6403340582
 21
4.4900490846
 31
0.0
  0
LINE
  5
9F
330
1F
100
AcDbEntity
  8
0
  6
Continuous
 62
     7
370
    30
100
AcDbLine
 10
7.7623340888
 20
3.990049054
 30
0.0
 11
7.7623340888
 21
4.0202012457
 31
0.0
  0
LINE
  5
A0
330
1F
100
AcDbEntity
  8
0
  6
Continuous
 62
     7
370
    30
100
AcDbLine
 10
7.6403340582
 20
4.0202012457
 30
0.0
 11
7.6403340582
 21
3.990049054
 31
0.0
  0
LINE
  5
A1
330
1F
100
AcDbEntity
  8
0
  6
Continuous
 62
     7
370
    30
100
AcDbLine
 10
7.7623340888
 20
4.6567157493
 30
0.0
 11
7.7623340888
 21
4.686867886
 31
0.0
  0
LINE
  5
A2
330
1F
100
AcDbEntity
  8
0
  6
Continuous
 62
     7
370
    30
100
AcDbLine
 10
7.6403340582
 20
4.686867886
 30
0.0
 11
7.6403340582
 21
4.6567157493
 31
0.0
  0
LINE
  5
A3
330
1F
100
AcDbEntity
  8
0
  6
Continuous
 62
     7
370
    30
100
AcDbLine
 10
7.7623340888
 20
4.7678268591
 30
0.0
 11
7.7623340888
 21
4.7979790049
 31
0.0
  0
LINE
  5
A4
330
1F
100
AcDbEntity
  8
0
  6
Continuous
 62
     7
370
    30
100
AcDbLine
 10
7.6403340582
 20
4.7979790049
 30
0.0
 11
7.6403340582
 21
4.7678268591
 31
0.0
  0
LINE
  5
A5
330
1F
100
AcDbEntity
  8
0
  6
Continuous
 62
     7
370
    30
100
AcDbLine
 10
7.7623340888
 20
4.7122713042
 30
0.0
 11
7.7623340888
 21
4.74242345
 31
0.0
  0
LINE
  5
A6
330
1F
100
AcDbEntity
  8
0
  6
Continuous
 62
     7
370
    30
100
AcDbLine
 10
7.6403340582
 20
4.74242345
 30
0.0
 11
7.6403340582
 21
4.7122713042
 31
0.0
  0
LINE
  5
A7
330
1F
100
AcDbEntity
  8
0
  6
Continuous
 62
     7
370
    30
100
AcDbLine
 10
7.7623340888
 20
3.9344935358
 30
0.0
 11
7.7623340888
 21
3.9646456542
 31
0.0
  0
LINE
  5
A8
330
1F
100
AcDbEntity
  8
0
  6
Continuous
 62
     7
370
    30
100
AcDbLine
 10
7.6403340582
 20
3.9646456542
 30
0.0
 11
7.6403340582
 21
3.9344935358
 31
0.0
  0
LINE
  5
A9
330
1F
100
AcDbEntity
  8
0
  6
Continuous
 62
     7
370
    30
100
AcDbLine
 10
7.7623340888
 20
4.1011601638
 30
0.0
 11
7.7623340888
 21
4.1313123555
 31
0.0
  0
LINE
  5
AA
330
1F
100
AcDbEntity
  8
0
  6
Continuous
 62
     7
370
    30
100
AcDbLine
 10
7.6403340582
 20
4.1313123555
 30
0.0
 11
7.6403340582
 21
4.1011601638
 31
0.0
  0
LINE
  5
AB
330
1F
100
AcDbEntity
  8
0
  6
Continuous
 62
     7
370
    30
100
AcDbLine
 10
7.7623340888
 20
4.0456046456
 30
0.0
 11
7.7623340888
 21
4.0757567639
 31
0.0
  0
LINE
  5
AC
330
1F
100
AcDbEntity
  8
0
  6
Continuous
 62
     7
370
    30
100
AcDbLine
 10
7.6403340582
 20
4.0757567639
 30
0.0
 11
7.6403340582
 21
4.0456046456
 31
0.0
  0
LINE
  5
AD
330
1F
100
AcDbEntity
  8
0
  6
Continuous
 62
     7
370
    30
100
AcDbLine
 10
7.7623340888
 20
4.32338242
 30
0.0
 11
7.7623340888
 21
4.353534575
 31
0.0
  0
LINE
  5
AE
330
1F
100
AcDbEntity
  8
0
  6
Continuous
 62
     7
370
    30
100
AcDbLine
 10
7.6403340582
 20
4.353534575
 30
0.0
 11
7.6403340582
 21
4.32338242
 31
0.0
  0
LINE
  5
AF
330
1F
100
AcDbEntity
  8
0
  6
Continuous
 62
     7
370
    30
100
AcDbLine
 10
7.7623340888
 20
4.2122712736
 30
0.0
 11
7.7623340888
 21
4.2424234652
 31
0.0
  0
LINE
  5
B0
330
1F
100
AcDbEntity
  8
0
  6
Continuous
 62
     7
370
    30
100
AcDbLine
 10
7.6403340582
 20
4.2424234652
 30
0.0
 11
7.6403340582
 21
4.2122712736
 31
0.0
  0
LINE
  5
B1
330
1F
100
AcDbEntity
  8
0
  6
Continuous
 62
     7
370
    30
100
AcDbLine
 10
7.7623340888
 20
3.823382426
 30
0.0
 11
7.7623340888
 21
3.8535345444
 31
0.0
  0
LINE
  5
B2
330
1F
100
AcDbEntity
  8
0
  6
Continuous
 62
     7
370
    30
100
AcDbLine
 10
7.6403340582
 20
3.8535345444
 30
0.0
 11
7.6403340582
 21
3.823382426
 31
0.0
  0
LINE
  5
B3
330
1F
100
AcDbEntity
  8
0
  6
Continuous
 62
     7
370
    30
100
AcDbLine
 10
7.7623340888
 20
4.2678268651
 30
0.0
 11
7.7623340888
 21
4.2979790201
 31
0.0
  0
LINE
  5
B4
330
1F
100
AcDbEntity
  8
0
  6
Continuous
 62
     7
370
    30
100
AcDbLine
 10
7.6403340582
 20
4.2979790201
 30
0.0
 11
7.6403340582
 21
4.2678268651
 31
0.0
  0
LINE
  5
B5
330
1F
100
AcDbEntity
  8
0
  6
Continuous
 62
     7
370
    30
100
AcDbLine
 10
7.7623340888
 20
4.6011601944
 30
0.0
 11
7.7623340888
 21
4.6313123311
 31
0.0
  0
LINE
  5
B6
330
1F
100
AcDbEntity
  8
0
  6
Continuous
 62
     7
370
    30
100
AcDbLine
 10
7.6403340582
 20
4.6313123311
 30
0.0
 11
7.6403340582
 21
4.6011601944
 31
0.0
  0
LINE
  5
B7
330
1F
100
AcDbEntity
  8
0
  6
Continuous
 62
     7
370
    30
100
AcDbLine
 10
7.7623340888
 20
4.4344935298
 30
0.0
 11
7.7623340888
 21
4.4646456848
 31
0.0
  0
LINE
  5
B8
330
1F
100
AcDbEntity
  8
0
  6
Continuous
 62
     7
370
    30
100
AcDbLine
 10
7.6403340582
 20
4.4646456848
 30
0.0
 11
7.6403340582
 21
4.4344935298
 31
0.0
  0
LINE
  5
B9
330
1F
100
AcDbEntity
  8
0
  6
Continuous
 62
     7
370
    30
100
AcDbLine
 10
7.7623340888
 20
4.1567157553
 30
0.0
 11
7.7623340888
 21
4.1868678737
 31
0.0
  0
LINE
  5
BA
330
1F
100
AcDbEntity
  8
0
  6
Continuous
 62
     7
370
    30
100
AcDbLine
 10
7.6403340582
 20
4.1868678737
 30
0.0
 11
7.6403340582
 21
4.1567157553
 31
0.0
  0
LINE
  5
BB
330
1F
100
AcDbEntity
  8
0
  6
Continuous
 62
     7
370
    30
100
AcDbLine
 10
7.7623340888
 20
5.0426250062
 30
0.0
 11
7.7013340735
 21
5.18989202
 31
0.0
  0
LINE
  5
BC
330
1F
100
AcDbEntity
  8
0
  6
Continuous
 62
     7
370
    30
100
AcDbLine
 10
7.7013340735
 20
5.18989202
 30
0.0
 11
7.6403340582
 21
5.0426250062
 31
0.0
  0
LINE
  5
BD
330
1F
100
AcDbEntity
  8
0
  6
Continuous
 62
     7
370
    30
100
AcDbLine
 10
7.7623340888
 20
4.8789379734
 30
0.0
 11
7.7623340888
 21
5.0426250062
 31
0.0
  0
LINE
  5
BE
330
1F
100
AcDbEntity
  8
0
  6
Continuous
 62
     7
370
    30
100
AcDbLine
 10
7.6403340582
 20
5.0426250062
 30
0.0
 11
7.6403340582
 21
4.8789379734
 31
0.0
  0
LINE
  5
BF
330
1F
100
AcDbEntity
  8
0
  6
Continuous
 62
     7
370
    30
100
AcDbLine
 10
7.7623340888
 20
3.8789379443
 30
0.0
 11
7.7623340888
 21
3.9090901359
 31
0.0
  0
LINE
  5
C0
330
1F
100
AcDbEntity
  8
0
  6
Continuous
 62
     7
370
    30
100
AcDbLine
 10
7.6403340582
 20
3.9090901359
 30
0.0
 11
7.6403340582
 21
3.8789379443
 31
0.0
  0
LINE
  5
C1
330
1F
100
AcDbEntity
  8
0
  6
Continuous
 62
     7
370
    30
100
AcDbLine
 10
3.1471263508
 20
3.7982655362
 30
0.0
 11
3.1436857372
 21
3.8022235105
 31
0.0
  0
LINE
  5
C2
330
1F
100
AcDbEntity
  8
0
  6
Continuous
 62
     7
370
    30
100
AcDbLine
 10
3.0069822497
 20
3.8022235105
 30
0.0
 11
3.0035416361
 21
3.7982655362
 31
0.0
  0
LINE
  5
C3
330
1F
100
AcDbEntity
  8
0
  6
Continuous
 62
     7
370
    30
100
AcDbLine
 10
3.158334048
 20
4.3106807201
 30
0.0
 11
3.1363340088
 21
4.32338242
 31
0.0
  0
LINE
  5
C4
330
1F
100
AcDbEntity
  8
0
  6
Continuous
 62
     7
370
    30
100
AcDbLine
 10
3.0143339781
 20
4.32338242
 30
0.0
 11
2.9923340856
 21
4.3106807201
 31
0.0
  0
LINE
  5
C5
330
1F
100
AcDbEntity
  8
0
  6
Continuous
 62
     7
370
    30
100
AcDbLine
 10
3.158334048
 20
4.3662362749
 30
0.0
 11
3.1363340088
 21
4.3789379749
 31
0.0
  0
LINE
  5
C6
330
1F
100
AcDbEntity
  8
0
  6
Continuous
 62
     7
370
    30
100
AcDbLine
 10
3.0143339781
 20
4.3789379749
 30
0.0
 11
2.9923340856
 21
4.3662362749
 31
0.0
  0
LINE
  5
C7
330
1F
100
AcDbEntity
  8
0
  6
Continuous
 62
     7
370
    30
100
AcDbLine
 10
3.158334048
 20
4.1995695736
 30
0.0
 11
3.1363340088
 21
4.2122712736
 31
0.0
  0
LINE
  5
C8
330
1F
100
AcDbEntity
  8
0
  6
Continuous
 62
     7
370
    30
100
AcDbLine
 10
3.0143339781
 20
4.2122712736
 30
0.0
 11
2.9923340856
 21
4.1995695736
 31
0.0
  0
LINE
  5
C9
330
1F
100
AcDbEntity
  8
0
  6
Continuous
 62
     7
370
    30
100
AcDbLine
 10
2.9923340856
 20
4.3106807201
 30
0.0
 11
3.0143339781
 21
4.2979790201
 31
0.0
  0
LINE
  5
CA
330
1F
100
AcDbEntity
  8
0
  6
Continuous
 62
     7
370
    30
100
AcDbLine
 10
3.1363340088
 20
4.2979790201
 30
0.0
 11
3.158334048
 21
4.3106807201
 31
0.0
  0
LINE
  5
CB
330
1F
100
AcDbEntity
  8
0
  6
Continuous
 62
     7
370
    30
100
AcDbLine
 10
3.158334048
 20
4.2551251652
 30
0.0
 11
3.1363340088
 21
4.2678268651
 31
0.0
  0
LINE
  5
CC
330
1F
100
AcDbEntity
  8
0
  6
Continuous
 62
     7
370
    30
100
AcDbLine
 10
3.0143339781
 20
4.2678268651
 30
0.0
 11
2.9923340856
 21
4.2551251652
 31
0.0
  0
LINE
  5
CD
330
1F
100
AcDbEntity
  8
0
  6
Continuous
 62
     7
370
    30
100
AcDbLine
 10
3.158334048
 20
4.5884584945
 30
0.0
 11
3.1363340088
 21
4.6011601944
 31
0.0
  0
LINE
  5
CE
330
1F
100
AcDbEntity
  8
0
  6
Continuous
 62
     7
370
    30
100
AcDbLine
 10
3.0143339781
 20
4.6011601944
 30
0.0
 11
2.9923340856
 21
4.5884584945
 31
0.0
  0
LINE
  5
CF
330
1F
100
AcDbEntity
  8
0
  6
Continuous
 62
     7
370
    30
100
AcDbLine
 10
2.9923340856
 20
4.5884584945
 30
0.0
 11
3.0143339781
 21
4.5757567762
 31
0.0
  0
LINE
  5
D0
330
1F
100
AcDbEntity
  8
0
  6
Continuous
 62
     7
370
    30
100
AcDbLine
 10
3.1363340088
 20
4.5757567762
 30
0.0
 11
3.158334048
 21
4.5884584945
 31
0.0
  0
LINE
  5
D1
330
1F
100
AcDbEntity
  8
0
  6
Continuous
 62
     7
370
    30
100
AcDbLine
 10
2.9923340856
 20
4.6440140494
 30
0.0
 11
3.0143339781
 21
4.6313123311
 31
0.0
  0
LINE
  5
D2
330
1F
100
AcDbEntity
  8
0
  6
Continuous
 62
     7
370
    30
100
AcDbLine
 10
3.1363340088
 20
4.6313123311
 30
0.0
 11
3.158334048
 21
4.6440140494
 31
0.0
  0
LINE
  5
D3
330
1F
100
AcDbEntity
  8
0
  6
Continuous
 62
     7
370
    30
100
AcDbLine
 10
3.158334048
 20
4.4773473847
 30
0.0
 11
3.1363340088
 21
4.4900490846
 31
0.0
  0
LINE
  5
D4
330
1F
100
AcDbEntity
  8
0
  6
Continuous
 62
     7
370
    30
100
AcDbLine
 10
3.0143339781
 20
4.4900490846
 30
0.0
 11
2.9923340856
 21
4.4773473847
 31
0.0
  0
LINE
  5
D5
330
1F
100
AcDbEntity
  8
0
  6
Continuous
 62
     7
370
    30
100
AcDbLine
 10
2.9923340856
 20
4.3662362749
 30
0.0
 11
3.0143339781
 21
4.353534575
 31
0.0
  0
LINE
  5
D6
330
1F
100
AcDbEntity
  8
0
  6
Continuous
 62
     7
370
    30
100
AcDbLine
 10
3.1363340088
 20
4.353534575
 30
0.0
 11
3.158334048
 21
4.3662362749
 31
0.0
  0
LINE
  5
D7
330
1F
100
AcDbEntity
  8
0
  6
Continuous
 62
     7
370
    30
100
AcDbLine
 10
3.158334048
 20
4.4217918298
 30
0.0
 11
3.1363340088
 21
4.4344935298
 31
0.0
  0
LINE
  5
D8
330
1F
100
AcDbEntity
  8
0
  6
Continuous
 62
     7
370
    30
100
AcDbLine
 10
3.0143339781
 20
4.4344935298
 30
0.0
 11
2.9923340856
 21
4.4217918298
 31
0.0
  0
LINE
  5
D9
330
1F
100
AcDbEntity
  8
0
  6
Continuous
 62
     7
370
    30
100
AcDbLine
 10
2.9923340856
 20
4.2551251652
 30
0.0
 11
3.0143339781
 21
4.2424234652
 31
0.0
  0
LINE
  5
DA
330
1F
100
AcDbEntity
  8
0
  6
Continuous
 62
     7
370
    30
100
AcDbLine
 10
3.1363340088
 20
4.2424234652
 30
0.0
 11
3.158334048
 21
4.2551251652
 31
0.0
  0
LINE
  5
DB
330
1F
100
AcDbEntity
  8
0
  6
Continuous
 62
     7
370
    30
100
AcDbLine
 10
3.158334048
 20
4.5329029396
 30
0.0
 11
3.1363340088
 21
4.5456046395
 31
0.0
  0
LINE
  5
DC
330
1F
100
AcDbEntity
  8
0
  6
Continuous
 62
     7
370
    30
100
AcDbLine
 10
3.0143339781
 20
4.5456046395
 30
0.0
 11
2.9923340856
 21
4.5329029396
 31
0.0
  0
LINE
  5
DD
330
1F
100
AcDbEntity
  8
0
  6
Continuous
 62
     7
370
    30
100
AcDbLine
 10
3.158334048
 20
4.1440140554
 30
0.0
 11
3.1363340088
 21
4.1567157553
 31
0.0
  0
LINE
  5
DE
330
1F
100
AcDbEntity
  8
0
  6
Continuous
 62
     7
370
    30
100
AcDbLine
 10
3.0143339781
 20
4.1567157553
 30
0.0
 11
2.9923340856
 21
4.1440140554
 31
0.0
  0
LINE
  5
DF
330
1F
100
AcDbEntity
  8
0
  6
Continuous
 62
     7
370
    30
100
AcDbLine
 10
2.9923340856
 20
4.4773473847
 30
0.0
 11
3.0143339781
 21
4.4646456848
 31
0.0
  0
LINE
  5
E0
330
1F
100
AcDbEntity
  8
0
  6
Continuous
 62
     7
370
    30
100
AcDbLine
 10
3.1363340088
 20
4.4646456848
 30
0.0
 11
3.158334048
 21
4.4773473847
 31
0.0
  0
LINE
  5
E1
330
1F
100
AcDbEntity
  8
0
  6
Continuous
 62
     7
370
    30
100
AcDbLine
 10
2.9923340856
 20
4.1995695736
 30
0.0
 11
3.0143339781
 21
4.1868678737
 31
0.0
  0
LINE
  5
E2
330
1F
100
AcDbEntity
  8
0
  6
Continuous
 62
     7
370
    30
100
AcDbLine
 10
3.1363340088
 20
4.1868678737
 30
0.0
 11
3.158334048
 21
4.1995695736
 31
0.0
  0
LINE
  5
E3
330
1F
100
AcDbEntity
  8
0
  6
Continuous
 62
     7
370
    30
100
AcDbLine
 10
3.158334048
 20
4.0329029456
 30
0.0
 11
3.1363340088
 21
4.0456046456
 31
0.0
  0
LINE
  5
E4
330
1F
100
AcDbEntity
  8
0
  6
Continuous
 62
     7
370
    30
100
AcDbLine
 10
3.0143339781
 20
4.0456046456
 30
0.0
 11
2.9923340856
 21
4.0329029456
 31
0.0
  0
LINE
  5
E5
330
1F
100
AcDbEntity
  8
0
  6
Continuous
 62
     7
370
    30
100
AcDbLine
 10
2.9923340856
 20
3.8662362443
 30
0.0
 11
3.0143339781
 21
3.8535345444
 31
0.0
  0
LINE
  5
E6
330
1F
100
AcDbEntity
  8
0
  6
Continuous
 62
     7
370
    30
100
AcDbLine
 10
3.1363340088
 20
3.8535345444
 30
0.0
 11
3.158334048
 21
3.8662362443
 31
0.0
  0
LINE
  5
E7
330
1F
100
AcDbEntity
  8
0
  6
Continuous
 62
     7
370
    30
100
AcDbLine
 10
2.9923340856
 20
4.4217918298
 30
0.0
 11
3.0143339781
 21
4.4090901299
 31
0.0
  0
LINE
  5
E8
330
1F
100
AcDbEntity
  8
0
  6
Continuous
 62
     7
370
    30
100
AcDbLine
 10
3.1363340088
 20
4.4090901299
 30
0.0
 11
3.158334048
 21
4.4217918298
 31
0.0
  0
LINE
  5
E9
330
1F
100
AcDbEntity
  8
0
  6
Continuous
 62
     7
370
    30
100
AcDbLine
 10
2.9923340856
 20
3.8106807261
 30
0.0
 11
3.0069822497
 21
3.8022235105
 31
0.0
  0
LINE
  5
EA
330
1F
100
AcDbEntity
  8
0
  6
Continuous
 62
     7
370
    30
100
AcDbLine
 10
3.1436857372
 20
3.8022235105
 30
0.0
 11
3.158334048
 21
3.8106807261
 31
0.0
  0
LINE
  5
EB
330
1F
100
AcDbEntity
  8
0
  6
Continuous
 62
     7
370
    30
100
AcDbLine
 10
3.158334048
 20
4.7551251591
 30
0.0
 11
3.1363340088
 21
4.7678268591
 31
0.0
  0
LINE
  5
EC
330
1F
100
AcDbEntity
  8
0
  6
Continuous
 62
     7
370
    30
100
AcDbLine
 10
3.0143339781
 20
4.7678268591
 30
0.0
 11
2.9923340856
 21
4.7551251591
 31
0.0
  0
LINE
  5
ED
330
1F
100
AcDbEntity
  8
0
  6
Continuous
 62
     7
370
    30
100
AcDbLine
 10
2.9923340856
 20
4.7551251591
 30
0.0
 11
3.0143339781
 21
4.74242345
 31
0.0
  0
LINE
  5
EE
330
1F
100
AcDbEntity
  8
0
  6
Continuous
 62
     7
370
    30
100
AcDbLine
 10
3.1363340088
 20
4.74242345
 30
0.0
 11
3.158334048
 21
4.7551251591
 31
0.0
  0
LINE
  5
EF
330
1F
100
AcDbEntity
  8
0
  6
Continuous
 62
     7
370
    30
100
AcDbLine
 10
2.9923340856
 20
4.6995696042
 30
0.0
 11
3.0143339781
 21
4.686867886
 31
0.0
  0
LINE
  5
F0
330
1F
100
AcDbEntity
  8
0
  6
Continuous
 62
     7
370
    30
100
AcDbLine
 10
3.1363340088
 20
4.686867886
 30
0.0
 11
3.158334048
 21
4.6995696042
 31
0.0
  0
LINE
  5
F1
330
1F
100
AcDbEntity
  8
0
  6
Continuous
 62
     7
370
    30
100
AcDbLine
 10
3.158334048
 20
3.8662362443
 30
0.0
 11
3.1363340088
 21
3.8789379443
 31
0.0
  0
LINE
  5
F2
330
1F
100
AcDbEntity
  8
0
  6
Continuous
 62
     7
370
    30
100
AcDbLine
 10
3.0143339781
 20
3.8789379443
 30
0.0
 11
2.9923340856
 21
3.8662362443
 31
0.0
  0
LINE
  5
F3
330
1F
100
AcDbEntity
  8
0
  6
Continuous
 62
     7
370
    30
100
AcDbLine
 10
3.158334048
 20
4.8662362678
 30
0.0
 11
3.1363340088
 21
4.8789379734
 31
0.0
  0
LINE
  5
F4
330
1F
100
AcDbEntity
  8
0
  6
Continuous
 62
     7
370
    30
100
AcDbLine
 10
3.0143339781
 20
4.8789379734
 30
0.0
 11
2.9923340856
 21
4.8662362678
 31
0.0
  0
LINE
  5
F5
330
1F
100
AcDbEntity
  8
0
  6
Continuous
 62
     7
370
    30
100
AcDbLine
 10
3.158334048
 20
3.8106807261
 30
0.0
 11
3.1363340088
 21
3.823382426
 31
0.0
  0
LINE
  5
F6
330
1F
100
AcDbEntity
  8
0
  6
Continuous
 62
     7
370
    30
100
AcDbLine
 10
3.0143339781
 20
3.823382426
 30
0.0
 11
2.9923340856
 21
3.8106807261
 31
0.0
  0
LINE
  5
F7
330
1F
100
AcDbEntity
  8
0
  6
Continuous
 62
     7
370
    30
100
AcDbLine
 10
2.9923340856
 20
4.5329029396
 30
0.0
 11
3.0143339781
 21
4.5202012397
 31
0.0
  0
LINE
  5
F8
330
1F
100
AcDbEntity
  8
0
  6
Continuous
 62
     7
370
    30
100
AcDbLine
 10
3.1363340088
 20
4.5202012397
 30
0.0
 11
3.158334048
 21
4.5329029396
 31
0.0
  0
LINE
  5
F9
330
1F
100
AcDbEntity
  8
0
  6
Continuous
 62
     7
370
    30
100
AcDbLine
 10
2.9923340856
 20
4.0884584639
 30
0.0
 11
3.0143339781
 21
4.0757567639
 31
0.0
  0
LINE
  5
FA
330
1F
100
AcDbEntity
  8
0
  6
Continuous
 62
     7
370
    30
100
AcDbLine
 10
3.1363340088
 20
4.0757567639
 30
0.0
 11
3.158334048
 21
4.0884584639
 31
0.0
  0
LINE
  5
FB
330
1F
100
AcDbEntity
  8
0
  6
Continuous
 62
     7
370
    30
100
AcDbLine
 10
3.158334048
 20
3.9217918359
 30
0.0
 11
3.1363340088
 21
3.9344935358
 31
0.0
  0
LINE
  5
FC
330
1F
100
AcDbEntity
  8
0
  6
Continuous
 62
     7
370
    30
100
AcDbLine
 10
3.0143339781
 20
3.9344935358
 30
0.0
 11
2.9923340856
 21
3.9217918359
 31
0.0
  0
LINE
  5
FD
330
1F
100
AcDbEntity
  8
0
  6
Continuous
 62
     7
370
    30
100
AcDbLine
 10
2.9923340856
 20
3.9773473541
 30
0.0
 11
3.0143339781
 21
3.9646456542
 31
0.0
  0
LINE
  5
FE
330
1F
100
AcDbEntity
  8
0
  6
Continuous
 62
     7
370
    30
100
AcDbLine
 10
3.1363340088
 20
3.9646456542
 30
0.0
 11
3.158334048
 21
3.9773473541
 31
0.0
  0
LINE
  5
FF
330
1F
100
AcDbEntity
  8
0
  6
Continuous
 62
     7
370
    30
100
AcDbLine
 10
2.9923340856
 20
4.8662362678
 30
0.0
 11
3.0143339781
 21
4.8535345621
 31
0.0
  0
LINE
  5
100
330
1F
100
AcDbEntity
  8
0
  6
Continuous
 62
     7
370
    30
100
AcDbLine
 10
3.1363340088
 20
4.8535345621
 30
0.0
 11
3.158334048
 21
4.8662362678
 31
0.0
  0
LINE
  5
101
330
1F
100
AcDbEntity
  8
0
  6
Continuous
 62
     7
370
    30
100
AcDbLine
 10
3.158334048
 20
4.6440140494
 30
0.0
 11
3.1363340088
 21
4.6567157493
 31
0.0
  0
LINE
  5
102
330
1F
100
AcDbEntity
  8
0
  6
Continuous
 62
     7
370
    30
100
AcDbLine
 10
3.0143339781
 20
4.6567157493
 30
0.0
 11
2.9923340856
 21
4.6440140494
 31
0.0
  0
LINE
  5
103
330
1F
100
AcDbEntity
  8
0
  6
Continuous
 62
     7
370
    30
100
AcDbLine
 10
2.9923340856
 20
3.9217918359
 30
0.0
 11
3.0143339781
 21
3.9090901359
 31
0.0
  0
LINE
  5
104
330
1F
100
AcDbEntity
  8
0
  6
Continuous
 62
     7
370
    30
100
AcDbLine
 10
3.1363340088
 20
3.9090901359
 30
0.0
 11
3.158334048
 21
3.9217918359
 31
0.0
  0
LINE
  5
105
330
1F
100
AcDbEntity
  8
0
  6
Continuous
 62
     7
370
    30
100
AcDbLine
 10
3.158334048
 20
3.9773473541
 30
0.0
 11
3.1363340088
 21
3.990049054
 31
0.0
  0
LINE
  5
106
330
1F
100
AcDbEntity
  8
0
  6
Continuous
 62
     7
370
    30
100
AcDbLine
 10
3.0143339781
 20
3.990049054
 30
0.0
 11
2.9923340856
 21
3.9773473541
 31
0.0
  0
LINE
  5
107
330
1F
100
AcDbEntity
  8
0
  6
Continuous
 62
     7
370
    30
100
AcDbLine
 10
2.9923340856
 20
4.1440140554
 30
0.0
 11
3.0143339781
 21
4.1313123555
 31
0.0
  0
LINE
  5
108
330
1F
100
AcDbEntity
  8
0
  6
Continuous
 62
     7
370
    30
100
AcDbLine
 10
3.1363340088
 20
4.1313123555
 30
0.0
 11
3.158334048
 21
4.1440140554
 31
0.0
  0
LINE
  5
109
330
1F
100
AcDbEntity
  8
0
  6
Continuous
 62
     7
370
    30
100
AcDbLine
 10
2.9923340856
 20
4.810680714
 30
0.0
 11
3.0143339781
 21
4.7979790049
 31
0.0
  0
LINE
  5
10A
330
1F
100
AcDbEntity
  8
0
  6
Continuous
 62
     7
370
    30
100
AcDbLine
 10
3.1363340088
 20
4.7979790049
 30
0.0
 11
3.158334048
 21
4.810680714
 31
0.0
  0
LINE
  5
10B
330
1F
100
AcDbEntity
  8
0
  6
Continuous
 62
     7
370
    30
100
AcDbLine
 10
2.9923340856
 20
4.0329029456
 30
0.0
 11
3.0143339781
 21
4.0202012457
 31
0.0
  0
LINE
  5
10C
330
1F
100
AcDbEntity
  8
0
  6
Continuous
 62
     7
370
    30
100
AcDbLine
 10
3.1363340088
 20
4.0202012457
 30
0.0
 11
3.158334048
 21
4.0329029456
 31
0.0
  0
LINE
  5
10D
330
1F
100
AcDbEntity
  8
0
  6
Continuous
 62
     7
370
    30
100
AcDbLine
 10
3.158334048
 20
4.0884584639
 30
0.0
 11
3.1363340088
 21
4.1011601638
 31
0.0
  0
LINE
  5
10E
330
1F
100
AcDbEntity
  8
0
  6
Continuous
 62
     7
370
    30
100
AcDbLine
 10
3.0143339781
 20
4.1011601638
 30
0.0
 11
2.9923340856
 21
4.0884584639
 31
0.0
  0
LINE
  5
10F
330
1F
100
AcDbEntity
  8
0
  6
Continuous
 62
     7
370
    30
100
AcDbLine
 10
3.158334048
 20
4.6995696042
 30
0.0
 11
3.1363340088
 21
4.7122713042
 31
0.0
  0
LINE
  5
110
330
1F
100
AcDbEntity
  8
0
  6
Continuous
 62
     7
370
    30
100
AcDbLine
 10
3.0143339781
 20
4.7122713042
 30
0.0
 11
2.9923340856
 21
4.6995696042
 31
0.0
  0
LINE
  5
111
330
1F
100
AcDbEntity
  8
0
  6
Continuous
 62
     7
370
    30
100
AcDbLine
 10
3.158334048
 20
4.810680714
 30
0.0
 11
3.1363340088
 21
4.8233824185
 31
0.0
  0
LINE
  5
112
330
1F
100
AcDbEntity
  8
0
  6
Continuous
 62
     7
370
    30
100
AcDbLine
 10
3.0143339781
 20
4.8233824185
 30
0.0
 11
2.9923340856
 21
4.810680714
 31
0.0
  0
LINE
  5
113
330
1F
100
AcDbEntity
  8
0
  6
Continuous
 62
     7
370
    30
100
AcDbLine
 10
3.1363340088
 20
3.9344935358
 30
0.0
 11
3.1363340088
 21
3.9646456542
 31
0.0
  0
LINE
  5
114
330
1F
100
AcDbEntity
  8
0
  6
Continuous
 62
     7
370
    30
100
AcDbLine
 10
3.0143339781
 20
3.9646456542
 30
0.0
 11
3.0143339781
 21
3.9344935358
 31
0.0
  0
LINE
  5
115
330
1F
100
AcDbEntity
  8
0
  6
Continuous
 62
     7
370
    30
100
AcDbLine
 10
3.1363340088
 20
4.0456046456
 30
0.0
 11
3.1363340088
 21
4.0757567639
 31
0.0
  0
LINE
  5
116
330
1F
100
AcDbEntity
  8
0
  6
Continuous
 62
     7
370
    30
100
AcDbLine
 10
3.0143339781
 20
4.0757567639
 30
0.0
 11
3.0143339781
 21
4.0456046456
 31
0.0
  0
LINE
  5
117
330
1F
100
AcDbEntity
  8
0
  6
Continuous
 62
     7
370
    30
100
AcDbLine
 10
3.1363340088
 20
4.2122712736
 30
0.0
 11
3.1363340088
 21
4.2424234652
 31
0.0
  0
LINE
  5
118
330
1F
100
AcDbEntity
  8
0
  6
Continuous
 62
     7
370
    30
100
AcDbLine
 10
3.0143339781
 20
4.2424234652
 30
0.0
 11
3.0143339781
 21
4.2122712736
 31
0.0
  0
LINE
  5
119
330
1F
100
AcDbEntity
  8
0
  6
Continuous
 62
     7
370
    30
100
AcDbLine
 10
3.1363340088
 20
4.1011601638
 30
0.0
 11
3.1363340088
 21
4.1313123555
 31
0.0
  0
LINE
  5
11A
330
1F
100
AcDbEntity
  8
0
  6
Continuous
 62
     7
370
    30
100
AcDbLine
 10
3.0143339781
 20
4.1313123555
 30
0.0
 11
3.0143339781
 21
4.1011601638
 31
0.0
  0
LINE
  5
11B
330
1F
100
AcDbEntity
  8
0
  6
Continuous
 62
     7
370
    30
100
AcDbLine
 10
3.1363340088
 20
4.32338242
 30
0.0
 11
3.1363340088
 21
4.353534575
 31
0.0
  0
LINE
  5
11C
330
1F
100
AcDbEntity
  8
0
  6
Continuous
 62
     7
370
    30
100
AcDbLine
 10
3.0143339781
 20
4.353534575
 30
0.0
 11
3.0143339781
 21
4.32338242
 31
0.0
  0
LINE
  5
11D
330
1F
100
AcDbEntity
  8
0
  6
Continuous
 62
     7
370
    30
100
AcDbLine
 10
3.1363340088
 20
4.4344935298
 30
0.0
 11
3.1363340088
 21
4.4646456848
 31
0.0
  0
LINE
  5
11E
330
1F
100
AcDbEntity
  8
0
  6
Continuous
 62
     7
370
    30
100
AcDbLine
 10
3.0143339781
 20
4.4646456848
 30
0.0
 11
3.0143339781
 21
4.4344935298
 31
0.0
  0
LINE
  5
11F
330
1F
100
AcDbEntity
  8
0
  6
Continuous
 62
     7
370
    30
100
AcDbLine
 10
3.1363340088
 20
4.5456046395
 30
0.0
 11
3.1363340088
 21
4.5757567762
 31
0.0
  0
LINE
  5
120
330
1F
100
AcDbEntity
  8
0
  6
Continuous
 62
     7
370
    30
100
AcDbLine
 10
3.0143339781
 20
4.5757567762
 30
0.0
 11
3.0143339781
 21
4.5456046395
 31
0.0
  0
LINE
  5
121
330
1F
100
AcDbEntity
  8
0
  6
Continuous
 62
     7
370
    30
100
AcDbLine
 10
3.1363340088
 20
4.6567157493
 30
0.0
 11
3.1363340088
 21
4.686867886
 31
0.0
  0
LINE
  5
122
330
1F
100
AcDbEntity
  8
0
  6
Continuous
 62
     7
370
    30
100
AcDbLine
 10
3.0143339781
 20
4.686867886
 30
0.0
 11
3.0143339781
 21
4.6567157493
 31
0.0
  0
LINE
  5
123
330
1F
100
AcDbEntity
  8
0
  6
Continuous
 62
     7
370
    30
100
AcDbLine
 10
3.1363340088
 20
4.7678268591
 30
0.0
 11
3.1363340088
 21
4.7979790049
 31
0.0
  0
LINE
  5
124
330
1F
100
AcDbEntity
  8
0
  6
Continuous
 62
     7
370
    30
100
AcDbLine
 10
3.0143339781
 20
4.7979790049
 30
0.0
 11
3.0143339781
 21
4.7678268591
 31
0.0
  0
LINE
  5
125
330
1F
100
AcDbEntity
  8
0
  6
Continuous
 62
     7
370
    30
100
AcDbLine
 10
3.1363340088
 20
4.1567157553
 30
0.0
 11
3.1363340088
 21
4.1868678737
 31
0.0
  0
LINE
  5
126
330
1F
100
AcDbEntity
  8
0
  6
Continuous
 62
     7
370
    30
100
AcDbLine
 10
3.0143339781
 20
4.1868678737
 30
0.0
 11
3.0143339781
 21
4.1567157553
 31
0.0
  0
LINE
  5
127
330
1F
100
AcDbEntity
  8
0
  6
Continuous
 62
     7
370
    30
100
AcDbLine
 10
3.1363340088
 20
4.2678268651
 30
0.0
 11
3.1363340088
 21
4.2979790201
 31
0.0
  0
LINE
  5
128
330
1F
100
AcDbEntity
  8
0
  6
Continuous
 62
     7
370
    30
100
AcDbLine
 10
3.0143339781
 20
4.2979790201
 30
0.0
 11
3.0143339781
 21
4.2678268651
 31
0.0
  0
LINE
  5
129
330
1F
100
AcDbEntity
  8
0
  6
Continuous
 62
     7
370
    30
100
AcDbLine
 10
3.1363340088
 20
4.3789379749
 30
0.0
 11
3.1363340088
 21
4.4090901299
 31
0.0
  0
LINE
  5
12A
330
1F
100
AcDbEntity
  8
0
  6
Continuous
 62
     7
370
    30
100
AcDbLine
 10
3.0143339781
 20
4.4090901299
 30
0.0
 11
3.0143339781
 21
4.3789379749
 31
0.0
  0
LINE
  5
12B
330
1F
100
AcDbEntity
  8
0
  6
Continuous
 62
     7
370
    30
100
AcDbLine
 10
3.1363340088
 20
5.0426250062
 30
0.0
 11
3.0753339934
 21
5.18989202
 31
0.0
  0
LINE
  5
12C
330
1F
100
AcDbEntity
  8
0
  6
Continuous
 62
     7
370
    30
100
AcDbLine
 10
3.0753339934
 20
5.18989202
 30
0.0
 11
3.0143339781
 21
5.0426250062
 31
0.0
  0
LINE
  5
12D
330
1F
100
AcDbEntity
  8
0
  6
Continuous
 62
     7
370
    30
100
AcDbLine
 10
3.1363340088
 20
4.7122713042
 30
0.0
 11
3.1363340088
 21
4.74242345
 31
0.0
  0
LINE
  5
12E
330
1F
100
AcDbEntity
  8
0
  6
Continuous
 62
     7
370
    30
100
AcDbLine
 10
3.0143339781
 20
4.74242345
 30
0.0
 11
3.0143339781
 21
4.7122713042
 31
0.0
  0
LINE
  5
12F
330
1F
100
AcDbEntity
  8
0
  6
Continuous
 62
     7
370
    30
100
AcDbLine
 10
3.1363340088
 20
3.990049054
 30
0.0
 11
3.1363340088
 21
4.0202012457
 31
0.0
  0
LINE
  5
130
330
1F
100
AcDbEntity
  8
0
  6
Continuous
 62
     7
370
    30
100
AcDbLine
 10
3.0143339781
 20
4.0202012457
 30
0.0
 11
3.0143339781
 21
3.990049054
 31
0.0
  0
LINE
  5
131
330
1F
100
AcDbEntity
  8
0
  6
Continuous
 62
     7
370
    30
100
AcDbLine
 10
3.1363340088
 20
3.823382426
 30
0.0
 11
3.1363340088
 21
3.8535345444
 31
0.0
  0
LINE
  5
132
330
1F
100
AcDbEntity
  8
0
  6
Continuous
 62
     7
370
    30
100
AcDbLine
 10
3.0143339781
 20
3.8535345444
 30
0.0
 11
3.0143339781
 21
3.823382426
 31
0.0
  0
LINE
  5
133
330
1F
100
AcDbEntity
  8
0
  6
Continuous
 62
     7
370
    30
100
AcDbLine
 10
3.1363340088
 20
3.8789379443
 30
0.0
 11
3.1363340088
 21
3.9090901359
 31
0.0
  0
LINE
  5
134
330
1F
100
AcDbEntity
  8
0
  6
Continuous
 62
     7
370
    30
100
AcDbLine
 10
3.0143339781
 20
3.9090901359
 30
0.0
 11
3.0143339781
 21
3.8789379443
 31
0.0
  0
LINE
  5
135
330
1F
100
AcDbEntity
  8
0
  6
Continuous
 62
     7
370
    30
100
AcDbLine
 10
3.1363340088
 20
4.8789379734
 30
0.0
 11
3.1363340088
 21
5.0426250062
 31
0.0
  0
LINE
  5
136
330
1F
100
AcDbEntity
  8
0
  6
Continuous
 62
     7
370
    30
100
AcDbLine
 10
3.0143339781
 20
5.0426250062
 30
0.0
 11
3.0143339781
 21
4.8789379734
 31
0.0
  0
LINE
  5
137
330
1F
100
AcDbEntity
  8
0
  6
Continuous
 62
     7
370
    30
100
AcDbLine
 10
3.1363340088
 20
4.4900490846
 30
0.0
 11
3.1363340088
 21
4.5202012397
 31
0.0
  0
LINE
  5
138
330
1F
100
AcDbEntity
  8
0
  6
Continuous
 62
     7
370
    30
100
AcDbLine
 10
3.0143339781
 20
4.5202012397
 30
0.0
 11
3.0143339781
 21
4.4900490846
 31
0.0
  0
LINE
  5
139
330
1F
100
AcDbEntity
  8
0
  6
Continuous
 62
     7
370
    30
100
AcDbLine
 10
3.1363340088
 20
4.8233824185
 30
0.0
 11
3.1363340088
 21
4.8535345621
 31
0.0
  0
LINE
  5
13A
330
1F
100
AcDbEntity
  8
0
  6
Continuous
 62
     7
370
    30
100
AcDbLine
 10
3.0143339781
 20
4.8535345621
 30
0.0
 11
3.0143339781
 21
4.8233824185
 31
0.0
  0
LINE
  5
13B
330
1F
100
AcDbEntity
  8
0
  6
Continuous
 62
     7
370
    30
100
AcDbLine
 10
3.1363340088
 20
4.6011601944
 30
0.0
 11
3.1363340088
 21
4.6313123311
 31
0.0
  0
LINE
  5
13C
330
1F
100
AcDbEntity
  8
0
  6
Continuous
 62
     7
370
    30
100
AcDbLine
 10
3.0143339781
 20
4.6313123311
 30
0.0
 11
3.0143339781
 21
4.6011601944
 31
0.0
  0
LINE
  5
13D
330
1F
100
AcDbEntity
  8
0
  6
Continuous
 62
     7
370
    30
100
AcDbLine
 10
7.8713341763
 20
3.7398919972
 30
0.0
 11
7.8205907358
 21
3.7982655362
 31
0.0
  0
LINE
  5
13E
330
1F
100
AcDbEntity
  8
0
  6
Continuous
 62
     7
370
    30
100
AcDbLine
 10
7.5820772645
 20
3.7982655362
 30
0.0
 11
7.5313339707
 21
3.7398919972
 31
0.0
  0
LINE
  5
13F
330
1F
100
AcDbEntity
  8
0
  6
Continuous
 62
     7
370
    30
100
AcDbLine
 10
3.2453340963
 20
3.7398919972
 30
0.0
 11
3.1945908024
 21
3.7982655362
 31
0.0
  0
LINE
  5
140
330
1F
100
AcDbEntity
  8
0
  6
Continuous
 62
     7
370
    30
100
AcDbLine
 10
2.9560773311
 20
3.7982655362
 30
0.0
 11
2.9053338906
 21
3.7398919972
 31
0.0
  0
LINE
  5
141
330
1F
100
AcDbEntity
  8
0
  6
Continuous
 62
     7
370
    30
100
AcDbLine
 10
6.8383340563
 20
4.9620420363
 30
0.0
 11
6.8383340563
 21
4.9778920282
 31
0.0
  0
LINE
  5
142
330
1F
100
AcDbEntity
  8
0
  6
Continuous
 62
     7
370
    30
100
AcDbLine
 10
6.4383340171
 20
4.9778920282
 30
0.0
 11
6.4383340171
 21
4.9620420363
 31
0.0
  0
LINE
  5
143
330
1F
100
AcDbEntity
  8
0
  6
Continuous
 62
     7
370
    30
100
AcDbLine
 10
6.5463340695
 20
4.9528920303
 30
0.0
 11
6.5463340695
 21
4.8898920296
 31
0.0
  0
LINE
  5
144
330
1F
100
AcDbEntity
  8
0
  6
Continuous
 62
     7
370
    30
100
AcDbLine
 10
6.5463340695
 20
4.8792513597
 30
0.0
 11
6.5463340695
 21
4.8711660934
 31
0.0
  0
LINE
  5
145
330
1F
100
AcDbEntity
  8
0
  6
Continuous
 62
     7
370
    30
100
AcDbLine
 10
6.5463340695
 20
4.8440279357
 30
0.0
 11
6.5463340695
 21
4.8359426693
 31
0.0
  0
LINE
  5
146
330
1F
100
AcDbEntity
  8
0
  6
Continuous
 62
     7
370
    30
100
AcDbLine
 10
6.5463340695
 20
4.8088045115
 30
0.0
 11
6.5463340695
 21
4.8007192474
 31
0.0
  0
LINE
  5
147
330
1F
100
AcDbEntity
  8
0
  6
Continuous
 62
     7
370
    30
100
AcDbLine
 10
6.5463340695
 20
4.7735810851
 30
0.0
 11
6.5463340695
 21
4.765495821
 31
0.0
  0
LINE
  5
148
330
1F
100
AcDbEntity
  8
0
  6
Continuous
 62
     7
370
    30
100
AcDbLine
 10
6.5463340695
 20
4.7383576678
 30
0.0
 11
6.5463340695
 21
4.7302724037
 31
0.0
  0
LINE
  5
149
330
1F
100
AcDbEntity
  8
0
  6
Continuous
 62
     7
370
    30
100
AcDbLine
 10
6.5463340695
 20
4.7031342414
 30
0.0
 11
6.5463340695
 21
4.7028920242
 31
0.0
  0
LINE
  5
14A
330
1F
100
AcDbEntity
  8
0
  6
Continuous
 62
     7
370
    30
100
AcDbLine
 10
6.7303340772
 20
4.7144211193
 30
0.0
 11
6.7303340772
 21
4.7225420505
 31
0.0
  0
LINE
  5
14B
330
1F
100
AcDbEntity
  8
0
  6
Continuous
 62
     7
370
    30
100
AcDbLine
 10
6.7303340772
 20
4.7496445458
 30
0.0
 11
6.7303340772
 21
4.757765477
 31
0.0
  0
LINE
  5
14C
330
1F
100
AcDbEntity
  8
0
  6
Continuous
 62
     7
370
    30
100
AcDbLine
 10
6.7303340772
 20
4.784867963
 30
0.0
 11
6.7303340772
 21
4.7929889034
 31
0.0
  0
LINE
  5
14D
330
1F
100
AcDbEntity
  8
0
  6
Continuous
 62
     7
370
    30
100
AcDbLine
 10
6.7303340772
 20
4.8200913895
 30
0.0
 11
6.7303340772
 21
4.8282123252
 31
0.0
  0
LINE
  5
14E
330
1F
100
AcDbEntity
  8
0
  6
Continuous
 62
     7
370
    30
100
AcDbLine
 10
6.7303340772
 20
4.8553148136
 30
0.0
 11
6.7303340772
 21
4.8634357459
 31
0.0
  0
LINE
  5
14F
330
1F
100
AcDbEntity
  8
0
  6
Continuous
 62
     7
370
    30
100
AcDbLine
 10
6.7303340772
 20
4.8898920296
 30
0.0
 11
6.7303340772
 21
4.9528920303
 31
0.0
  0
LINE
  5
150
330
1F
100
AcDbEntity
  8
0
  6
Continuous
 62
     7
370
    30
100
AcDbLine
 10
4.0463339897
 20
4.8792513597
 30
0.0
 11
4.0463339897
 21
4.8711660934
 31
0.0
  0
LINE
  5
151
330
1F
100
AcDbEntity
  8
0
  6
Continuous
 62
     7
370
    30
100
AcDbLine
 10
4.0463339897
 20
4.8440279357
 30
0.0
 11
4.0463339897
 21
4.8359426693
 31
0.0
  0
LINE
  5
152
330
1F
100
AcDbEntity
  8
0
  6
Continuous
 62
     7
370
    30
100
AcDbLine
 10
4.0463339897
 20
4.8088045115
 30
0.0
 11
4.0463339897
 21
4.8007192474
 31
0.0
  0
LINE
  5
153
330
1F
100
AcDbEntity
  8
0
  6
Continuous
 62
     7
370
    30
100
AcDbLine
 10
4.0463339897
 20
4.7735810851
 30
0.0
 11
4.0463339897
 21
4.765495821
 31
0.0
  0
LINE
  5
154
330
1F
100
AcDbEntity
  8
0
  6
Continuous
 62
     7
370
    30
100
AcDbLine
 10
4.0463339897
 20
4.7383576678
 30
0.0
 11
4.0463339897
 21
4.7302724037
 31
0.0
  0
LINE
  5
155
330
1F
100
AcDbEntity
  8
0
  6
Continuous
 62
     7
370
    30
100
AcDbLine
 10
4.0463339897
 20
4.7031342414
 30
0.0
 11
4.0463339897
 21
4.7028920242
 31
0.0
  0
LINE
  5
156
330
1F
100
AcDbEntity
  8
0
  6
Continuous
 62
     7
370
    30
100
AcDbLine
 10
4.2303339975
 20
4.7144211193
 30
0.0
 11
4.2303339975
 21
4.7225420505
 31
0.0
  0
LINE
  5
157
330
1F
100
AcDbEntity
  8
0
  6
Continuous
 62
     7
370
    30
100
AcDbLine
 10
4.2303339975
 20
4.7496445458
 30
0.0
 11
4.2303339975
 21
4.757765477
 31
0.0
  0
LINE
  5
158
330
1F
100
AcDbEntity
  8
0
  6
Continuous
 62
     7
370
    30
100
AcDbLine
 10
4.2303339975
 20
4.784867963
 30
0.0
 11
4.2303339975
 21
4.7929889034
 31
0.0
  0
LINE
  5
159
330
1F
100
AcDbEntity
  8
0
  6
Continuous
 62
     7
370
    30
100
AcDbLine
 10
4.2303339975
 20
4.8200913895
 30
0.0
 11
4.2303339975
 21
4.8282123252
 31
0.0
  0
LINE
  5
15A
330
1F
100
AcDbEntity
  8
0
  6
Continuous
 62
     7
370
    30
100
AcDbLine
 10
4.2303339975
 20
4.8553148136
 30
0.0
 11
4.2303339975
 21
4.8634357459
 31
0.0
  0
LINE
  5
15B
330
1F
100
AcDbEntity
  8
0
  6
Continuous
 62
     7
370
    30
100
AcDbLine
 10
5.2963340296
 20
4.8792513597
 30
0.0
 11
5.2963340296
 21
4.8711660934
 31
0.0
  0
LINE
  5
15C
330
1F
100
AcDbEntity
  8
0
  6
Continuous
 62
     7
370
    30
100
AcDbLine
 10
5.2963340296
 20
4.8440279357
 30
0.0
 11
5.2963340296
 21
4.8359426693
 31
0.0
  0
LINE
  5
15D
330
1F
100
AcDbEntity
  8
0
  6
Continuous
 62
     7
370
    30
100
AcDbLine
 10
5.2963340296
 20
4.8088045115
 30
0.0
 11
5.2963340296
 21
4.8007192474
 31
0.0
  0
LINE
  5
15E
330
1F
100
AcDbEntity
  8
0
  6
Continuous
 62
     7
370
    30
100
AcDbLine
 10
5.2963340296
 20
4.7735810851
 30
0.0
 11
5.2963340296
 21
4.765495821
 31
0.0
  0
LINE
  5
15F
330
1F
100
AcDbEntity
  8
0
  6
Continuous
 62
     7
370
    30
100
AcDbLine
 10
5.2963340296
 20
4.7383576678
 30
0.0
 11
5.2963340296
 21
4.7302724037
 31
0.0
  0
LINE
  5
160
330
1F
100
AcDbEntity
  8
0
  6
Continuous
 62
     7
370
    30
100
AcDbLine
 10
5.2963340296
 20
4.7031342414
 30
0.0
 11
5.2963340296
 21
4.7028920242
 31
0.0
  0
LINE
  5
161
330
1F
100
AcDbEntity
  8
0
  6
Continuous
 62
     7
370
    30
100
AcDbLine
 10
5.4803340373
 20
4.7144211193
 30
0.0
 11
5.4803340373
 21
4.7225420505
 31
0.0
  0
LINE
  5
162
330
1F
100
AcDbEntity
  8
0
  6
Continuous
 62
     7
370
    30
100
AcDbLine
 10
5.4803340373
 20
4.7496445458
 30
0.0
 11
5.4803340373
 21
4.757765477
 31
0.0
  0
LINE
  5
163
330
1F
100
AcDbEntity
  8
0
  6
Continuous
 62
     7
370
    30
100
AcDbLine
 10
5.4803340373
 20
4.784867963
 30
0.0
 11
5.4803340373
 21
4.7929889034
 31
0.0
  0
LINE
  5
164
330
1F
100
AcDbEntity
  8
0
  6
Continuous
 62
     7
370
    30
100
AcDbLine
 10
5.4803340373
 20
4.8200913895
 30
0.0
 11
5.4803340373
 21
4.8282123252
 31
0.0
  0
LINE
  5
165
330
1F
100
AcDbEntity
  8
0
  6
Continuous
 62
     7
370
    30
100
AcDbLine
 10
5.4803340373
 20
4.8553148136
 30
0.0
 11
5.4803340373
 21
4.8634357459
 31
0.0
  0
CIRCLE
  5
166
330
1F
100
AcDbEntity
  8
0
  6
Continuous
 62
     7
370
    30
100
AcDbCircle
 10
3.4653340335
 20
4.0018920291
 30
0.0
 40
0.0546874999999996
  0
CIRCLE
  5
167
330
1F
100
AcDbEntity
  8
0
  6
Continuous
 62
     7
370
    30
100
AcDbCircle
 10
7.3113340335
 20
4.0018920291
 30
0.0
 40
0.0546875
  0
LINE
  5
168
330
1F
100
AcDbEntity
  8
0
  6
Continuous
 62
     7
370
    30
100
AcDbLine
 10
5.3623340326
 20
4.1198919941
 30
0.0
 11
5.3623340326
 21
3.9898920492
 31
0.0
  0
LINE
  5
169
330
1F
100
AcDbEntity
  8
0
  6
Continuous
 62
     7
370
    30
100
AcDbLine
 10
5.3803340333
 20
4.1198919941
 30
0.0
 11
5.3803340333
 21
3.9898920492
 31
0.0
  0
ARC
  5
16A
330
1F
100
AcDbEntity
  8
0
  6
Continuous
 62
     7
370
    30
100
AcDbCircle
 10
5.3303340335
 20
3.9898920291
 30
0.0
 40
0.0499999999999998
100
AcDbArc
 50
261.1501169016
 51
0.0
  0
ARC
  5
16B
330
1F
100
AcDbEntity
  8
0
  6
Continuous
 62
     7
370
    30
100
AcDbCircle
 10
5.3803340335
 20
4.3110228436
 30
0.0
 40
0.3750000000000001
100
AcDbArc
 50
188.0229869069
 51
261.1501169016
  0
ARC
  5
16C
330
1F
100
AcDbEntity
  8
0
  6
Continuous
 62
     7
370
    30
100
AcDbCircle
 10
5.0713878417
 20
4.2674768843
 30
0.0
 40
0.0630000000000006
100
AcDbArc
 50
116.7854683781
 51
188.0229869069
  0
ARC
  5
16D
330
1F
100
AcDbEntity
  8
0
  6
Continuous
 62
     7
370
    30
100
AcDbCircle
 10
4.9303340335
 20
4.5468920291
 30
0.0
 40
0.25
100
AcDbArc
 50
296.7854683781
 51
0.0
  0
LINE
  5
16E
330
1F
100
AcDbEntity
  8
0
  6
Continuous
 62
     7
370
    30
100
AcDbLine
 10
5.1803340263
 20
4.546892028
 30
0.0
 11
5.1803340263
 21
4.6647126203
 31
0.0
  0
ARC
  5
16F
330
1F
100
AcDbEntity
  8
0
  6
Continuous
 62
     7
370
    30
100
AcDbCircle
 10
5.2303340335
 20
4.6647126164
 30
0.0
 40
0.0499999999999998
100
AcDbArc
 50
119.8355602232
 51
180.0
  0
ARC
  5
170
330
1F
100
AcDbEntity
  8
0
  6
Continuous
 62
     7
370
    30
100
AcDbCircle
 10
5.1803340335
 20
4.7518920291
 30
0.0
 40
0.0505000000000007
100
AcDbArc
 50
299.8355602232
 51
110.0
  0
LINE
  5
171
330
1F
100
AcDbEntity
  8
0
  6
Continuous
 62
     7
370
    30
100
AcDbLine
 10
5.1630620075
 20
4.7993465091
 30
0.0
 11
5.1569056536
 21
4.8162609725
 31
0.0
  0
LINE
  5
172
330
1F
100
AcDbEntity
  8
0
  6
Continuous
 62
     7
370
    30
100
AcDbLine
 10
5.3623340326
 20
4.1198919941
 30
0.0
 11
5.3803340333
 21
4.1198919941
 31
0.0
  0
ARC
  5
173
330
1F
100
AcDbEntity
  8
0
  6
Continuous
 62
     7
370
    30
100
AcDbCircle
 10
5.1803340335
 20
4.7518920291
 30
0.0
 40
0.0685000000000004
100
AcDbArc
 50
299.8355602232
 51
110.0
  0
ARC
  5
174
330
1F
100
AcDbEntity
  8
0
  6
Continuous
 62
     7
370
    30
100
AcDbCircle
 10
5.0713878417
 20
4.2674768843
 30
0.0
 40
0.0450000000000012
100
AcDbArc
 50
116.7854683781
 51
188.0229869069
  0
ARC
  5
175
330
1F
100
AcDbEntity
  8
0
  6
Continuous
 62
     7
370
    30
100
AcDbCircle
 10
5.3303340335
 20
3.9898920291
 30
0.0
 40
0.032
100
AcDbArc
 50
261.1501169016
 51
0.0
  0
ARC
  5
176
330
1F
100
AcDbEntity
  8
0
  6
Continuous
 62
     7
370
    30
100
AcDbCircle
 10
5.3803340335
 20
4.3110228436
 30
0.0
 40
0.3570000000000007
100
AcDbArc
 50
188.0229869069
 51
261.1501169016
  0
ARC
  5
177
330
1F
100
AcDbEntity
  8
0
  6
Continuous
 62
     7
370
    30
100
AcDbCircle
 10
5.2303340335
 20
4.6647126164
 30
0.0
 40
0.032
100
AcDbArc
 50
119.8355602232
 51
180.0
  0
LINE
  5
178
330
1F
100
AcDbEntity
  8
0
  6
Continuous
 62
     7
370
    30
100
AcDbLine
 10
5.198334035
 20
4.546892028
 30
0.0
 11
5.198334035
 21
4.6647126203
 31
0.0
  0
ARC
  5
179
330
1F
100
AcDbEntity
  8
0
  6
Continuous
 62
     7
370
    30
100
AcDbCircle
 10
4.9303340335
 20
4.5468920291
 30
0.0
 40
0.268
100
AcDbArc
 50
296.7854683781
 51
0.0
  0
ARC
  5
17A
330
1F
100
AcDbEntity
  8
0
  6
Continuous
 62
     7
370
    30
100
AcDbCircle
 10
6.4803340335
 20
4.6647126164
 30
0.0
 40
0.032
100
AcDbArc
 50
119.8355602232
 51
180.0
  0
ARC
  5
17B
330
1F
100
AcDbEntity
  8
0
  6
Continuous
 62
     7
370
    30
100
AcDbCircle
 10
6.1803340335
 20
4.5468920291
 30
0.0
 40
0.268
100
AcDbArc
 50
296.7854683781
 51
0.0
  0
ARC
  5
17C
330
1F
100
AcDbEntity
  8
0
  6
Continuous
 62
     7
370
    30
100
AcDbCircle
 10
6.3213878417
 20
4.2674768843
 30
0.0
 40
0.0449999999999995
100
AcDbArc
 50
116.7854683781
 51
188.0229869069
  0
ARC
  5
17D
330
1F
100
AcDbEntity
  8
0
  6
Continuous
 62
     7
370
    30
100
AcDbCircle
 10
6.6303340335
 20
4.3110228436
 30
0.0
 40
0.3569999999999998
100
AcDbArc
 50
188.0229869069
 51
261.1501169016
  0
ARC
  5
17E
330
1F
100
AcDbEntity
  8
0
  6
Continuous
 62
     7
370
    30
100
AcDbCircle
 10
6.5803340335
 20
3.9898920291
 30
0.0
 40
0.032
100
AcDbArc
 50
261.1501169016
 51
0.0
  0
LINE
  5
17F
330
1F
100
AcDbEntity
  8
0
  6
Continuous
 62
     7
370
    30
100
AcDbLine
 10
6.6123340404
 20
4.1198919941
 30
0.0
 11
6.6123340404
 21
3.9898920492
 31
0.0
  0
LINE
  5
180
330
1F
100
AcDbEntity
  8
0
  6
Continuous
 62
     7
370
    30
100
AcDbLine
 10
6.6123340404
 20
4.1198919941
 30
0.0
 11
6.6303340858
 21
4.1198919941
 31
0.0
  0
LINE
  5
181
330
1F
100
AcDbEntity
  8
0
  6
Continuous
 62
     7
370
    30
100
AcDbLine
 10
6.6303340858
 20
4.1198919941
 30
0.0
 11
6.6303340858
 21
3.9898920492
 31
0.0
  0
ARC
  5
182
330
1F
100
AcDbEntity
  8
0
  6
Continuous
 62
     7
370
    30
100
AcDbCircle
 10
6.5803340335
 20
3.9898920291
 30
0.0
 40
0.0499999999999998
100
AcDbArc
 50
261.1501169016
 51
0.0
  0
ARC
  5
183
330
1F
100
AcDbEntity
  8
0
  6
Continuous
 62
     7
370
    30
100
AcDbCircle
 10
6.6303340335
 20
4.3110228436
 30
0.0
 40
0.3750000000000001
100
AcDbArc
 50
188.0229869069
 51
261.1501169016
  0
ARC
  5
184
330
1F
100
AcDbEntity
  8
0
  6
Continuous
 62
     7
370
    30
100
AcDbCircle
 10
6.3213878417
 20
4.2674768843
 30
0.0
 40
0.0630000000000006
100
AcDbArc
 50
116.7854683781
 51
188.0229869069
  0
ARC
  5
185
330
1F
100
AcDbEntity
  8
0
  6
Continuous
 62
     7
370
    30
100
AcDbCircle
 10
6.1803340335
 20
4.5468920291
 30
0.0
 40
0.25
100
AcDbArc
 50
296.7854683781
 51
0.0
  0
LINE
  5
186
330
1F
100
AcDbEntity
  8
0
  6
Continuous
 62
     7
370
    30
100
AcDbLine
 10
6.4303340295
 20
4.546892028
 30
0.0
 11
6.4303340295
 21
4.6647126203
 31
0.0
  0
ARC
  5
187
330
1F
100
AcDbEntity
  8
0
  6
Continuous
 62
     7
370
    30
100
AcDbCircle
 10
6.4803340335
 20
4.6647126164
 30
0.0
 40
0.0500000000000007
100
AcDbArc
 50
119.8355602232
 51
180.0
  0
ARC
  5
188
330
1F
100
AcDbEntity
  8
0
  6
Continuous
 62
     7
370
    30
100
AcDbCircle
 10
6.4303340335
 20
4.7518920291
 30
0.0
 40
0.0505000000000007
100
AcDbArc
 50
299.8355602232
 51
110.0
  0
LINE
  5
189
330
1F
100
AcDbEntity
  8
0
  6
Continuous
 62
     7
370
    30
100
AcDbLine
 10
6.4130620291
 20
4.7993465091
 30
0.0
 11
6.4069056202
 21
4.8162609725
 31
0.0
  0
ARC
  5
18A
330
1F
100
AcDbEntity
  8
0
  6
Continuous
 62
     7
370
    30
100
AcDbCircle
 10
6.4303340335
 20
4.7518920291
 30
0.0
 40
0.0685000000000004
100
AcDbArc
 50
299.8355602232
 51
110.0
  0
LINE
  5
18B
330
1F
100
AcDbEntity
  8
0
  6
Continuous
 62
     7
370
    30
100
AcDbLine
 10
6.4483340016
 20
4.546892028
 30
0.0
 11
6.4483340016
 21
4.6647126203
 31
0.0
  0
ARC
  5
18C
330
1F
100
AcDbEntity
  8
0
  6
Continuous
 62
     7
370
    30
100
AcDbCircle
 10
7.0963340335
 20
4.5468920291
 30
0.0
 40
0.2680000000000007
100
AcDbArc
 50
180.0
 51
243.2145316219
  0
ARC
  5
18D
330
1F
100
AcDbEntity
  8
0
  6
Continuous
 62
     7
370
    30
100
AcDbCircle
 10
6.7963340335
 20
4.6647126164
 30
0.0
 40
0.0320000000000004
100
AcDbArc
 50
0.0
 51
60.1644397768
  0
LINE
  5
18E
330
1F
100
AcDbEntity
  8
0
  6
Continuous
 62
     7
370
    30
100
AcDbLine
 10
6.8283339985
 20
4.546892028
 30
0.0
 11
6.8283339985
 21
4.6647126203
 31
0.0
  0
ARC
  5
18F
330
1F
100
AcDbEntity
  8
0
  6
Continuous
 62
     7
370
    30
100
AcDbCircle
 10
6.9552802253
 20
4.2674768843
 30
0.0
 40
0.0630000000000003
100
AcDbArc
 50
351.9770130931
 51
63.2145316219
  0
ARC
  5
190
330
1F
100
AcDbEntity
  8
0
  6
Continuous
 62
     7
370
    30
100
AcDbCircle
 10
6.6963340335
 20
3.9898920291
 30
0.0
 40
0.0320000000000009
100
AcDbArc
 50
180.0
 51
278.8498830984
  0
LINE
  5
191
330
1F
100
AcDbEntity
  8
0
  6
Continuous
 62
     7
370
    30
100
AcDbLine
 10
6.6643341063
 20
4.1198919941
 30
0.0
 11
6.6643341063
 21
3.9898920492
 31
0.0
  0
LINE
  5
192
330
1F
100
AcDbEntity
  8
0
  6
Continuous
 62
     7
370
    30
100
AcDbLine
 10
6.6643341063
 20
4.1198919941
 30
0.0
 11
6.6463340609
 21
4.1198919941
 31
0.0
  0
ARC
  5
193
330
1F
100
AcDbEntity
  8
0
  6
Continuous
 62
     7
370
    30
100
AcDbCircle
 10
6.6963340335
 20
3.9898920291
 30
0.0
 40
0.0500000000000016
100
AcDbArc
 50
180.0
 51
278.8498830984
  0
ARC
  5
194
330
1F
100
AcDbEntity
  8
0
  6
Continuous
 62
     7
370
    30
100
AcDbCircle
 10
6.6463340335
 20
4.3110228436
 30
0.0
 40
0.3570000000000007
100
AcDbArc
 50
278.8498830984
 51
351.9770130931
  0
LINE
  5
195
330
1F
100
AcDbEntity
  8
0
  6
Continuous
 62
     7
370
    30
100
AcDbLine
 10
6.8463340439
 20
4.546892028
 30
0.0
 11
6.8463340439
 21
4.6647126203
 31
0.0
  0
ARC
  5
196
330
1F
100
AcDbEntity
  8
0
  6
Continuous
 62
     7
370
    30
100
AcDbCircle
 10
6.9552802253
 20
4.2674768843
 30
0.0
 40
0.0449999999999995
100
AcDbArc
 50
351.9770130931
 51
63.2145316219
  0
ARC
  5
197
330
1F
100
AcDbEntity
  8
0
  6
Continuous
 62
     7
370
    30
100
AcDbCircle
 10
6.6463340335
 20
4.3110228436
 30
0.0
 40
0.3750000000000009
100
AcDbArc
 50
278.8498830984
 51
351.9770130931
  0
LINE
  5
198
330
1F
100
AcDbEntity
  8
0
  6
Continuous
 62
     7
370
    30
100
AcDbLine
 10
6.6463340609
 20
4.1198919941
 30
0.0
 11
6.6463340609
 21
3.9898920492
 31
0.0
  0
ARC
  5
199
330
1F
100
AcDbEntity
  8
0
  6
Continuous
 62
     7
370
    30
100
AcDbCircle
 10
6.8463340335
 20
4.7518920291
 30
0.0
 40
0.0505000000000007
100
AcDbArc
 50
70.0
 51
240.1644397768
  0
LINE
  5
19A
330
1F
100
AcDbEntity
  8
0
  6
Continuous
 62
     7
370
    30
100
AcDbLine
 10
6.8636060443
 20
4.7993465091
 30
0.0
 11
6.8697624532
 21
4.8162609725
 31
0.0
  0
ARC
  5
19B
330
1F
100
AcDbEntity
  8
0
  6
Continuous
 62
     7
370
    30
100
AcDbCircle
 10
6.8463340335
 20
4.7518920291
 30
0.0
 40
0.0684999999999999
100
AcDbArc
 50
70.0
 51
240.1644397768
  0
ARC
  5
19C
330
1F
100
AcDbEntity
  8
0
  6
Continuous
 62
     7
370
    30
100
AcDbCircle
 10
7.0963340335
 20
4.5468920291
 30
0.0
 40
0.25
100
AcDbArc
 50
180.0
 51
243.2145316219
  0
ARC
  5
19D
330
1F
100
AcDbEntity
  8
0
  6
Continuous
 62
     7
370
    30
100
AcDbCircle
 10
6.7963340335
 20
4.6647126164
 30
0.0
 40
0.0500000000000007
100
AcDbArc
 50
0.0
 51
60.1644397768
  0
ARC
  5
19E
330
1F
100
AcDbEntity
  8
0
  6
Continuous
 62
     7
370
    30
100
AcDbCircle
 10
3.9803340335
 20
4.6647126164
 30
0.0
 40
0.032
100
AcDbArc
 50
119.8355602232
 51
180.0
  0
LINE
  5
19F
330
1F
100
AcDbEntity
  8
0
  6
Continuous
 62
     7
370
    30
100
AcDbLine
 10
3.9483340685
 20
4.546892028
 30
0.0
 11
3.9483340685
 21
4.6647126203
 31
0.0
  0
ARC
  5
1A0
330
1F
100
AcDbEntity
  8
0
  6
Continuous
 62
     7
370
    30
100
AcDbCircle
 10
3.6803340335
 20
4.5468920291
 30
0.0
 40
0.2680000000000002
100
AcDbArc
 50
296.7854683781
 51
0.0
  0
ARC
  5
1A1
330
1F
100
AcDbEntity
  8
0
  6
Continuous
 62
     7
370
    30
100
AcDbCircle
 10
3.8213878417
 20
4.2674768843
 30
0.0
 40
0.0450000000000003
100
AcDbArc
 50
116.7854683781
 51
188.0229869069
  0
ARC
  5
1A2
330
1F
100
AcDbEntity
  8
0
  6
Continuous
 62
     7
370
    30
100
AcDbCircle
 10
4.1303340335
 20
4.3110228436
 30
0.0
 40
0.3569999999999998
100
AcDbArc
 50
188.0229869069
 51
261.1501169016
  0
ARC
  5
1A3
330
1F
100
AcDbEntity
  8
0
  6
Continuous
 62
     7
370
    30
100
AcDbCircle
 10
4.0803340335
 20
3.9898920291
 30
0.0
 40
0.032
100
AcDbArc
 50
261.1501169016
 51
0.0
  0
LINE
  5
1A4
330
1F
100
AcDbEntity
  8
0
  6
Continuous
 62
     7
370
    30
100
AcDbLine
 10
4.1123339606
 20
4.1198919941
 30
0.0
 11
4.1123339606
 21
3.9898920492
 31
0.0
  0
LINE
  5
1A5
330
1F
100
AcDbEntity
  8
0
  6
Continuous
 62
     7
370
    30
100
AcDbLine
 10
4.1123339606
 20
4.1198919941
 30
0.0
 11
4.130334006
 21
4.1198919941
 31
0.0
  0
LINE
  5
1A6
330
1F
100
AcDbEntity
  8
0
  6
Continuous
 62
     7
370
    30
100
AcDbLine
 10
4.130334006
 20
4.1198919941
 30
0.0
 11
4.130334006
 21
3.9898920492
 31
0.0
  0
ARC
  5
1A7
330
1F
100
AcDbEntity
  8
0
  6
Continuous
 62
     7
370
    30
100
AcDbCircle
 10
4.1303340335
 20
4.3110228436
 30
0.0
 40
0.3749999999999997
100
AcDbArc
 50
188.0229869069
 51
261.1501169016
  0
ARC
  5
1A8
330
1F
100
AcDbEntity
  8
0
  6
Continuous
 62
     7
370
    30
100
AcDbCircle
 10
3.8213878417
 20
4.2674768843
 30
0.0
 40
0.0630000000000001
100
AcDbArc
 50
116.7854683781
 51
188.0229869069
  0
ARC
  5
1A9
330
1F
100
AcDbEntity
  8
0
  6
Continuous
 62
     7
370
    30
100
AcDbCircle
 10
3.6803340335
 20
4.5468920291
 30
0.0
 40
0.2500000000000002
100
AcDbArc
 50
296.7854683781
 51
0.0
  0
LINE
  5
1AA
330
1F
100
AcDbEntity
  8
0
  6
Continuous
 62
     7
370
    30
100
AcDbLine
 10
3.9303340231
 20
4.546892028
 30
0.0
 11
3.9303340231
 21
4.6647126203
 31
0.0
  0
ARC
  5
1AB
330
1F
100
AcDbEntity
  8
0
  6
Continuous
 62
     7
370
    30
100
AcDbCircle
 10
3.9803340335
 20
4.6647126164
 30
0.0
 40
0.0500000000000003
100
AcDbArc
 50
119.8355602232
 51
180.0
  0
ARC
  5
1AC
330
1F
100
AcDbEntity
  8
0
  6
Continuous
 62
     7
370
    30
100
AcDbCircle
 10
3.9303340335
 20
4.7518920291
 30
0.0
 40
0.0505000000000009
100
AcDbArc
 50
299.8355602232
 51
110.0
  0
LINE
  5
1AD
330
1F
100
AcDbEntity
  8
0
  6
Continuous
 62
     7
370
    30
100
AcDbLine
 10
3.9130620226
 20
4.7993465091
 30
0.0
 11
3.9069056137
 21
4.8162609725
 31
0.0
  0
ARC
  5
1AE
330
1F
100
AcDbEntity
  8
0
  6
Continuous
 62
     7
370
    30
100
AcDbCircle
 10
3.9303340335
 20
4.7518920291
 30
0.0
 40
0.0685000000000002
100
AcDbArc
 50
299.8355602232
 51
110.0
  0
ARC
  5
1AF
330
1F
100
AcDbEntity
  8
0
  6
Continuous
 62
     7
370
    30
100
AcDbCircle
 10
4.0803340335
 20
3.9898920291
 30
0.0
 40
0.0499999999999998
100
AcDbArc
 50
261.1501169016
 51
0.0
  0
LINE
  5
1B0
330
1F
100
AcDbEntity
  8
0
  6
Continuous
 62
     7
370
    30
100
AcDbLine
 10
5.6136060594
 20
4.7993465091
 30
0.0
 11
5.6197624133
 21
4.8162609725
 31
0.0
  0
ARC
  5
1B1
330
1F
100
AcDbEntity
  8
0
  6
Continuous
 62
     7
370
    30
100
AcDbCircle
 10
5.5463340335
 20
4.6647126164
 30
0.0
 40
0.0500000000000007
100
AcDbArc
 50
0.0
 51
60.1644397768
  0
LINE
  5
1B2
330
1F
100
AcDbEntity
  8
0
  6
Continuous
 62
     7
370
    30
100
AcDbLine
 10
5.5963340406
 20
4.546892028
 30
0.0
 11
5.5963340406
 21
4.6647126203
 31
0.0
  0
ARC
  5
1B3
330
1F
100
AcDbEntity
  8
0
  6
Continuous
 62
     7
370
    30
100
AcDbCircle
 10
5.8463340335
 20
4.5468920291
 30
0.0
 40
0.25
100
AcDbArc
 50
180.0
 51
243.2145316219
  0
ARC
  5
1B4
330
1F
100
AcDbEntity
  8
0
  6
Continuous
 62
     7
370
    30
100
AcDbCircle
 10
5.7052802253
 20
4.2674768843
 30
0.0
 40
0.0630000000000003
100
AcDbArc
 50
351.9770130931
 51
63.2145316219
  0
ARC
  5
1B5
330
1F
100
AcDbEntity
  8
0
  6
Continuous
 62
     7
370
    30
100
AcDbCircle
 10
5.3963340335
 20
4.3110228436
 30
0.0
 40
0.3750000000000009
100
AcDbArc
 50
278.8498830984
 51
351.9770130931
  0
ARC
  5
1B6
330
1F
100
AcDbEntity
  8
0
  6
Continuous
 62
     7
370
    30
100
AcDbCircle
 10
5.4463340335
 20
3.9898920291
 30
0.0
 40
0.0500000000000007
100
AcDbArc
 50
180.0
 51
278.8498830984
  0
LINE
  5
1B7
330
1F
100
AcDbEntity
  8
0
  6
Continuous
 62
     7
370
    30
100
AcDbLine
 10
5.4143340344
 20
4.1198919941
 30
0.0
 11
5.4143340344
 21
3.9898920492
 31
0.0
  0
ARC
  5
1B8
330
1F
100
AcDbEntity
  8
0
  6
Continuous
 62
     7
370
    30
100
AcDbCircle
 10
5.7052802253
 20
4.2674768843
 30
0.0
 40
0.0449999999999995
100
AcDbArc
 50
351.9770130931
 51
63.2145316219
  0
LINE
  5
1B9
330
1F
100
AcDbEntity
  8
0
  6
Continuous
 62
     7
370
    30
100
AcDbLine
 10
5.5783340319
 20
4.546892028
 30
0.0
 11
5.5783340319
 21
4.6647126203
 31
0.0
  0
LINE
  5
1BA
330
1F
100
AcDbEntity
  8
0
  6
Continuous
 62
     7
370
    30
100
AcDbLine
 10
5.3963340337
 20
4.1198919941
 30
0.0
 11
5.3963340337
 21
3.9898920492
 31
0.0
  0
ARC
  5
1BB
330
1F
100
AcDbEntity
  8
0
  6
Continuous
 62
     7
370
    30
100
AcDbCircle
 10
5.5463340335
 20
4.6647126164
 30
0.0
 40
0.0320000000000004
100
AcDbArc
 50
0.0
 51
60.1644397768
  0
ARC
  5
1BC
330
1F
100
AcDbEntity
  8
0
  6
Continuous
 62
     7
370
    30
100
AcDbCircle
 10
5.4463340335
 20
3.9898920291
 30
0.0
 40
0.0320000000000005
100
AcDbArc
 50
180.0
 51
278.8498830984
  0
LINE
  5
1BD
330
1F
100
AcDbEntity
  8
0
  6
Continuous
 62
     7
370
    30
100
AcDbLine
 10
5.4143340344
 20
4.1198919941
 30
0.0
 11
5.3963340337
 21
4.1198919941
 31
0.0
  0
ARC
  5
1BE
330
1F
100
AcDbEntity
  8
0
  6
Continuous
 62
     7
370
    30
100
AcDbCircle
 10
5.8463340335
 20
4.5468920291
 30
0.0
 40
0.2680000000000007
100
AcDbArc
 50
180.0
 51
243.2145316219
  0
ARC
  5
1BF
330
1F
100
AcDbEntity
  8
0
  6
Continuous
 62
     7
370
    30
100
AcDbCircle
 10
5.5963340335
 20
4.7518920291
 30
0.0
 40
0.0505000000000007
100
AcDbArc
 50
70.0
 51
240.1644397768
  0
ARC
  5
1C0
330
1F
100
AcDbEntity
  8
0
  6
Continuous
 62
     7
370
    30
100
AcDbCircle
 10
5.3963340335
 20
4.3110228436
 30
0.0
 40
0.3570000000000007
100
AcDbArc
 50
278.8498830984
 51
351.9770130931
  0
ARC
  5
1C1
330
1F
100
AcDbEntity
  8
0
  6
Continuous
 62
     7
370
    30
100
AcDbCircle
 10
5.5963340335
 20
4.7518920291
 30
0.0
 40
0.0684999999999999
100
AcDbArc
 50
70.0
 51
240.1644397768
  0
LINE
  5
1C2
330
1F
100
AcDbEntity
  8
0
  6
Continuous
 62
     7
370
    30
100
AcDbLine
 10
4.3636060379
 20
4.7993465091
 30
0.0
 11
4.3697624468
 21
4.8162609725
 31
0.0
  0
ARC
  5
1C3
330
1F
100
AcDbEntity
  8
0
  6
Continuous
 62
     7
370
    30
100
AcDbCircle
 10
4.3463340335
 20
4.7518920291
 30
0.0
 40
0.0505000000000007
100
AcDbArc
 50
70.0
 51
240.1644397768
  0
ARC
  5
1C4
330
1F
100
AcDbEntity
  8
0
  6
Continuous
 62
     7
370
    30
100
AcDbCircle
 10
4.2963340335
 20
4.6647126164
 30
0.0
 40
0.0500000000000007
100
AcDbArc
 50
0.0
 51
60.1644397768
  0
LINE
  5
1C5
330
1F
100
AcDbEntity
  8
0
  6
Continuous
 62
     7
370
    30
100
AcDbLine
 10
4.3463340374
 20
4.546892028
 30
0.0
 11
4.3463340374
 21
4.6647126203
 31
0.0
  0
ARC
  5
1C6
330
1F
100
AcDbEntity
  8
0
  6
Continuous
 62
     7
370
    30
100
AcDbCircle
 10
4.5963340335
 20
4.5468920291
 30
0.0
 40
0.25
100
AcDbArc
 50
180.0
 51
243.2145316219
  0
ARC
  5
1C7
330
1F
100
AcDbEntity
  8
0
  6
Continuous
 62
     7
370
    30
100
AcDbCircle
 10
4.4552802253
 20
4.2674768843
 30
0.0
 40
0.0629999999999999
100
AcDbArc
 50
351.9770130931
 51
63.2145316219
  0
ARC
  5
1C8
330
1F
100
AcDbEntity
  8
0
  6
Continuous
 62
     7
370
    30
100
AcDbCircle
 10
4.1463340335
 20
4.3110228436
 30
0.0
 40
0.3749999999999996
100
AcDbArc
 50
278.8498830984
 51
351.9770130931
  0
ARC
  5
1C9
330
1F
100
AcDbEntity
  8
0
  6
Continuous
 62
     7
370
    30
100
AcDbCircle
 10
4.1963340335
 20
3.9898920291
 30
0.0
 40
0.0500000000000002
100
AcDbArc
 50
180.0
 51
278.8498830984
  0
LINE
  5
1CA
330
1F
100
AcDbEntity
  8
0
  6
Continuous
 62
     7
370
    30
100
AcDbLine
 10
4.1463339812
 20
4.1198919941
 30
0.0
 11
4.1463339812
 21
3.9898920492
 31
0.0
  0
LINE
  5
1CB
330
1F
100
AcDbEntity
  8
0
  6
Continuous
 62
     7
370
    30
100
AcDbLine
 10
4.1643340266
 20
4.1198919941
 30
0.0
 11
4.1463339812
 21
4.1198919941
 31
0.0
  0
LINE
  5
1CC
330
1F
100
AcDbEntity
  8
0
  6
Continuous
 62
     7
370
    30
100
AcDbLine
 10
4.1643340266
 20
4.1198919941
 30
0.0
 11
4.1643340266
 21
3.9898920492
 31
0.0
  0
ARC
  5
1CD
330
1F
100
AcDbEntity
  8
0
  6
Continuous
 62
     7
370
    30
100
AcDbCircle
 10
4.1963340335
 20
3.9898920291
 30
0.0
 40
0.0320000000000005
100
AcDbArc
 50
180.0
 51
278.8498830984
  0
ARC
  5
1CE
330
1F
100
AcDbEntity
  8
0
  6
Continuous
 62
     7
370
    30
100
AcDbCircle
 10
4.1463340335
 20
4.3110228436
 30
0.0
 40
0.3569999999999999
100
AcDbArc
 50
278.8498830984
 51
351.9770130931
  0
ARC
  5
1CF
330
1F
100
AcDbEntity
  8
0
  6
Continuous
 62
     7
370
    30
100
AcDbCircle
 10
4.4552802253
 20
4.2674768843
 30
0.0
 40
0.0449999999999995
100
AcDbArc
 50
351.9770130931
 51
63.2145316219
  0
ARC
  5
1D0
330
1F
100
AcDbEntity
  8
0
  6
Continuous
 62
     7
370
    30
100
AcDbCircle
 10
4.5963340335
 20
4.5468920291
 30
0.0
 40
0.2680000000000007
100
AcDbArc
 50
180.0
 51
243.2145316219
  0
LINE
  5
1D1
330
1F
100
AcDbEntity
  8
0
  6
Continuous
 62
     7
370
    30
100
AcDbLine
 10
4.3283340653
 20
4.546892028
 30
0.0
 11
4.3283340653
 21
4.6647126203
 31
0.0
  0
ARC
  5
1D2
330
1F
100
AcDbEntity
  8
0
  6
Continuous
 62
     7
370
    30
100
AcDbCircle
 10
4.3463340335
 20
4.7518920291
 30
0.0
 40
0.0684999999999999
100
AcDbArc
 50
70.0
 51
240.1644397768
  0
ARC
  5
1D3
330
1F
100
AcDbEntity
  8
0
  6
Continuous
 62
     7
370
    30
100
AcDbCircle
 10
4.2963340335
 20
4.6647126164
 30
0.0
 40
0.0320000000000004
100
AcDbArc
 50
0.0
 51
60.1644397768
  0
LINE
  5
1D4
330
1F
100
AcDbEntity
  8
0
  6
Continuous
 62
     7
370
    30
100
AcDbLine
 10
4.0647642035
 20
4.8898920296
 30
0.0
 11
3.950333992
 21
4.8898920296
 31
0.0
  0
LINE
  5
1D5
330
1F
100
AcDbEntity
  8
0
  6
Continuous
 62
     7
370
    30
100
AcDbLine
 10
4.0444038787
 20
4.8781369695
 30
0.0
 11
4.0647642035
 21
4.8898920296
 31
0.0
  0
LINE
  5
1D6
330
1F
100
AcDbEntity
  8
0
  6
Continuous
 62
     7
370
    30
100
AcDbLine
 10
4.0444038787
 20
4.8722804831
 30
0.0
 11
4.0444038787
 21
4.8781369695
 31
0.0
  0
LINE
  5
1D7
330
1F
100
AcDbEntity
  8
0
  6
Continuous
 62
     7
370
    30
100
AcDbLine
 10
4.0647642035
 20
4.8605254236
 30
0.0
 11
4.0444038787
 21
4.8722804831
 31
0.0
  0
LINE
  5
1D8
330
1F
100
AcDbEntity
  8
0
  6
Continuous
 62
     7
370
    30
100
AcDbLine
 10
4.0647642035
 20
4.8546686054
 30
0.0
 11
4.0647642035
 21
4.8605254236
 31
0.0
  0
LINE
  5
1D9
330
1F
100
AcDbEntity
  8
0
  6
Continuous
 62
     7
370
    30
100
AcDbLine
 10
4.0647642035
 20
4.8253020018
 30
0.0
 11
4.0444038787
 21
4.8370570618
 31
0.0
  0
LINE
  5
1DA
330
1F
100
AcDbEntity
  8
0
  6
Continuous
 62
     7
370
    30
100
AcDbLine
 10
4.0444038787
 20
4.8076901236
 30
0.0
 11
4.0647642035
 21
4.8194451836
 31
0.0
  0
LINE
  5
1DB
330
1F
100
AcDbEntity
  8
0
  6
Continuous
 62
     7
370
    30
100
AcDbLine
 10
4.0647642035
 20
4.7900785753
 30
0.0
 11
4.0444038787
 21
4.8018336354
 31
0.0
  0
LINE
  5
1DC
330
1F
100
AcDbEntity
  8
0
  6
Continuous
 62
     7
370
    30
100
AcDbLine
 10
4.0444038787
 20
4.7724666971
 30
0.0
 11
4.0647642035
 21
4.7842217572
 31
0.0
  0
LINE
  5
1DD
330
1F
100
AcDbEntity
  8
0
  6
Continuous
 62
     7
370
    30
100
AcDbLine
 10
4.0444038787
 20
4.766610209
 30
0.0
 11
4.0444038787
 21
4.7724666971
 31
0.0
  0
LINE
  5
1DE
330
1F
100
AcDbEntity
  8
0
  6
Continuous
 62
     7
370
    30
100
AcDbLine
 10
4.0647642035
 20
4.7548551489
 30
0.0
 11
4.0444038787
 21
4.766610209
 31
0.0
  0
LINE
  5
1DF
330
1F
100
AcDbEntity
  8
0
  6
Continuous
 62
     7
370
    30
100
AcDbLine
 10
4.0444038787
 20
4.7372432799
 30
0.0
 11
4.0647642035
 21
4.7489983399
 31
0.0
  0
LINE
  5
1E0
330
1F
100
AcDbEntity
  8
0
  6
Continuous
 62
     7
370
    30
100
AcDbLine
 10
4.0444038787
 20
4.7313867917
 30
0.0
 11
4.0444038787
 21
4.7372432799
 31
0.0
  0
LINE
  5
1E1
330
1F
100
AcDbEntity
  8
0
  6
Continuous
 62
     7
370
    30
100
AcDbLine
 10
4.0647642035
 20
4.7137749135
 30
0.0
 11
4.0647642035
 21
4.7196317225
 31
0.0
  0
LINE
  5
1E2
330
1F
100
AcDbEntity
  8
0
  6
Continuous
 62
     7
370
    30
100
AcDbLine
 10
4.0444038787
 20
4.6961633653
 30
0.0
 11
4.0444038787
 21
4.7020198443
 31
0.0
  0
LINE
  5
1E3
330
1F
100
AcDbEntity
  8
0
  6
Continuous
 62
     7
370
    30
100
AcDbLine
 10
4.0647642035
 20
4.6785514871
 30
0.0
 11
4.0647642035
 21
4.6844083144
 31
0.0
  0
LINE
  5
1E4
330
1F
100
AcDbEntity
  8
0
  6
Continuous
 62
     7
370
    30
100
AcDbLine
 10
4.0444038787
 20
4.6609399388
 30
0.0
 11
4.0444038787
 21
4.6667964362
 31
0.0
  0
LINE
  5
1E5
330
1F
100
AcDbEntity
  8
0
  6
Continuous
 62
     7
370
    30
100
AcDbLine
 10
4.0647650835
 20
4.6433192974
 30
0.0
 11
4.0647650835
 21
4.6491844113
 31
0.0
  0
ARC
  5
1E6
330
1F
100
AcDbEntity
  8
0
  6
Continuous
 62
     7
370
    30
100
AcDbCircle
 10
4.0563340335
 20
4.6058920291
 30
0.0
 40
0.0310000000000005
100
AcDbArc
 50
95.4495226951
 51
270.0
  0
LINE
  5
1E7
330
1F
100
AcDbEntity
  8
0
  6
Continuous
 62
     7
370
    30
100
AcDbLine
 10
4.220334013
 20
4.5748920212
 30
0.0
 11
4.0563340475
 21
4.5748920212
 31
0.0
  0
ARC
  5
1E8
330
1F
100
AcDbEntity
  8
0
  6
Continuous
 62
     7
370
    30
100
AcDbCircle
 10
4.2203340335
 20
4.6058920291
 30
0.0
 40
0.0310000000000007
100
AcDbArc
 50
270.0
 51
75.2623825484
  0
ARC
  5
1E9
330
1F
100
AcDbEntity
  8
0
  6
Continuous
 62
     7
370
    30
100
AcDbCircle
 10
4.2373669684
 20
4.6399140513
 30
0.0
 40
0.0100000000000086
100
AcDbArc
 50
165.3098749059
 51
203.8403348298
  0
LINE
  5
1EA
330
1F
100
AcDbEntity
  8
0
  6
Continuous
 62
     7
370
    30
100
AcDbLine
 10
4.2322951281
 20
4.6451065017
 30
0.0
 11
4.2276938813
 21
4.6424499591
 31
0.0
  0
LINE
  5
1EB
330
1F
100
AcDbEntity
  8
0
  6
Continuous
 62
     7
370
    30
100
AcDbLine
 10
4.21193473
 20
4.66271805
 30
0.0
 11
4.2322951281
 21
4.6509629808
 31
0.0
  0
LINE
  5
1EC
330
1F
100
AcDbEntity
  8
0
  6
Continuous
 62
     7
370
    30
100
AcDbLine
 10
4.21193473
 20
4.7390217027
 30
0.0
 11
4.21193473
 21
4.7331648845
 31
0.0
  0
LINE
  5
1ED
330
1F
100
AcDbEntity
  8
0
  6
Continuous
 62
     7
370
    30
100
AcDbLine
 10
4.2322951281
 20
4.7566332509
 30
0.0
 11
4.2322951281
 21
4.7507767627
 31
0.0
  0
LINE
  5
1EE
330
1F
100
AcDbEntity
  8
0
  6
Continuous
 62
     7
370
    30
100
AcDbLine
 10
4.21193473
 20
4.7742451291
 30
0.0
 11
4.21193473
 21
4.7683883109
 31
0.0
  0
LINE
  5
1EF
330
1F
100
AcDbEntity
  8
0
  6
Continuous
 62
     7
370
    30
100
AcDbLine
 10
4.2322951281
 20
4.7918566773
 30
0.0
 11
4.2322951281
 21
4.7860001891
 31
0.0
  0
LINE
  5
1F0
330
1F
100
AcDbEntity
  8
0
  6
Continuous
 62
     7
370
    30
100
AcDbLine
 10
4.21193473
 20
4.8094685555
 30
0.0
 11
4.21193473
 21
4.8036117373
 31
0.0
  0
LINE
  5
1F1
330
1F
100
AcDbEntity
  8
0
  6
Continuous
 62
     7
370
    30
100
AcDbLine
 10
4.2322951281
 20
4.8270800992
 30
0.0
 11
4.2322951281
 21
4.821223611
 31
0.0
  0
LINE
  5
1F2
330
1F
100
AcDbEntity
  8
0
  6
Continuous
 62
     7
370
    30
100
AcDbLine
 10
4.21193473
 20
4.8446919774
 30
0.0
 11
4.21193473
 21
4.8388351592
 31
0.0
  0
LINE
  5
1F3
330
1F
100
AcDbEntity
  8
0
  6
Continuous
 62
     7
370
    30
100
AcDbLine
 10
4.2322951281
 20
4.8623035233
 30
0.0
 11
4.2322951281
 21
4.8564470374
 31
0.0
  0
ARC
  5
1F4
330
1F
100
AcDbEntity
  8
0
  6
Continuous
 62
     7
370
    30
100
AcDbCircle
 10
4.3263340335
 20
4.8278920291
 30
0.0
 40
0.0620000000000003
100
AcDbArc
 50
0.0
 51
90.0
  0
LINE
  5
1F5
330
1F
100
AcDbEntity
  8
0
  6
Continuous
 62
     7
370
    30
100
AcDbLine
 10
4.3883340456
 20
4.8278920273
 30
0.0
 11
4.3883340456
 21
4.8263030498
 31
0.0
  0
ARC
  5
1F6
330
1F
100
AcDbEntity
  8
0
  6
Continuous
 62
     7
370
    30
100
AcDbCircle
 10
4.3783340335
 20
4.8263030498
 30
0.0
 40
0.0099999999999901
100
AcDbArc
 50
246.7301760415
 51
0.0
  0
LINE
  5
1F7
330
1F
100
AcDbEntity
  8
0
  6
Continuous
 62
     7
370
    30
100
AcDbLine
 10
4.3108340008
 20
4.514892041
 30
0.0
 11
3.9658339863
 21
4.514892041
 31
0.0
  0
LINE
  5
1F8
330
1F
100
AcDbEntity
  8
0
  6
Continuous
 62
     7
370
    30
100
AcDbLine
 10
3.9658339863
 20
4.6797758096
 30
0.0
 11
3.9658339863
 21
4.514892041
 31
0.0
  0
ARC
  5
1F9
330
1F
100
AcDbEntity
  8
0
  6
Continuous
 62
     7
370
    30
100
AcDbCircle
 10
3.8983340335
 20
4.8263030498
 30
0.0
 40
0.0099999999999993
100
AcDbArc
 50
180.0
 51
293.2698239585
  0
LINE
  5
1FA
330
1F
100
AcDbEntity
  8
0
  6
Continuous
 62
     7
370
    30
100
AcDbLine
 10
4.21193473
 20
4.7037982854
 30
0.0
 11
4.21193473
 21
4.6979414581
 31
0.0
  0
ARC
  5
1FB
330
1F
100
AcDbEntity
  8
0
  6
Continuous
 62
     7
370
    30
100
AcDbCircle
 10
3.9858340335
 20
4.6797758035
 30
0.0
 40
0.0199999999999988
100
AcDbArc
 50
127.5815576187
 51
180.0
  0
LINE
  5
1FC
330
1F
100
AcDbEntity
  8
0
  6
Continuous
 62
     7
370
    30
100
AcDbLine
 10
4.2322951281
 20
4.6861864072
 30
0.0
 11
4.2322951281
 21
4.6803299282
 31
0.0
  0
LINE
  5
1FD
330
1F
100
AcDbEntity
  8
0
  6
Continuous
 62
     7
370
    30
100
AcDbLine
 10
4.3108340008
 20
4.514892041
 30
0.0
 11
4.3108340008
 21
4.6797758096
 31
0.0
  0
LINE
  5
1FE
330
1F
100
AcDbEntity
  8
0
  6
Continuous
 62
     7
370
    30
100
AcDbLine
 10
4.21193473
 20
4.668574859
 30
0.0
 11
4.21193473
 21
4.66271805
 31
0.0
  0
LINE
  5
1FF
330
1F
100
AcDbEntity
  8
0
  6
Continuous
 62
     7
370
    30
100
AcDbLine
 10
4.2322951281
 20
4.6509629808
 30
0.0
 11
4.2322951281
 21
4.6451065017
 31
0.0
  0
LINE
  5
200
330
1F
100
AcDbEntity
  8
0
  6
Continuous
 62
     7
370
    30
100
AcDbLine
 10
4.0533900415
 20
4.6367519149
 30
0.0
 11
4.0647650835
 21
4.6433192974
 31
0.0
  0
LINE
  5
201
330
1F
100
AcDbEntity
  8
0
  6
Continuous
 62
     7
370
    30
100
AcDbLine
 10
4.0647650835
 20
4.6491844113
 30
0.0
 11
4.0444038787
 21
4.6609399388
 31
0.0
  0
LINE
  5
202
330
1F
100
AcDbEntity
  8
0
  6
Continuous
 62
     7
370
    30
100
AcDbLine
 10
4.0444038787
 20
4.6667964362
 30
0.0
 11
4.0647642035
 21
4.6785514871
 31
0.0
  0
LINE
  5
203
330
1F
100
AcDbEntity
  8
0
  6
Continuous
 62
     7
370
    30
100
AcDbLine
 10
4.0647642035
 20
4.6844083144
 30
0.0
 11
4.0444038787
 21
4.6961633653
 31
0.0
  0
LINE
  5
204
330
1F
100
AcDbEntity
  8
0
  6
Continuous
 62
     7
370
    30
100
AcDbLine
 10
4.0444038787
 20
4.7020198443
 30
0.0
 11
4.0647642035
 21
4.7137749135
 31
0.0
  0
LINE
  5
205
330
1F
100
AcDbEntity
  8
0
  6
Continuous
 62
     7
370
    30
100
AcDbLine
 10
4.0647642035
 20
4.7196317225
 30
0.0
 11
4.0444038787
 21
4.7313867917
 31
0.0
  0
LINE
  5
206
330
1F
100
AcDbEntity
  8
0
  6
Continuous
 62
     7
370
    30
100
AcDbLine
 10
4.0647642035
 20
4.7489983399
 30
0.0
 11
4.0647642035
 21
4.7548551489
 31
0.0
  0
ARC
  5
207
330
1F
100
AcDbEntity
  8
0
  6
Continuous
 62
     7
370
    30
100
AcDbCircle
 10
4.3463340335
 20
4.7518920291
 30
0.0
 40
0.0710000000000083
100
AcDbArc
 50
66.7301760415
 51
232.4184423812
  0
LINE
  5
208
330
1F
100
AcDbEntity
  8
0
  6
Continuous
 62
     7
370
    30
100
AcDbLine
 10
4.21193473
 20
4.6979414581
 30
0.0
 11
4.2322951281
 21
4.6861864072
 31
0.0
  0
LINE
  5
209
330
1F
100
AcDbEntity
  8
0
  6
Continuous
 62
     7
370
    30
100
AcDbLine
 10
4.2322951281
 20
4.6803299282
 30
0.0
 11
4.21193473
 21
4.668574859
 31
0.0
  0
LINE
  5
20A
330
1F
100
AcDbEntity
  8
0
  6
Continuous
 62
     7
370
    30
100
AcDbLine
 10
3.8883340149
 20
4.8278920273
 30
0.0
 11
3.8883340149
 21
4.8263030498
 31
0.0
  0
ARC
  5
20B
330
1F
100
AcDbEntity
  8
0
  6
Continuous
 62
     7
370
    30
100
AcDbCircle
 10
3.9303340335
 20
4.7518920291
 30
0.0
 40
0.071000000000011
100
AcDbArc
 50
307.5815576188
 51
113.2698239585
  0
ARC
  5
20C
330
1F
100
AcDbEntity
  8
0
  6
Continuous
 62
     7
370
    30
100
AcDbCircle
 10
4.2908340335
 20
4.6797758035
 30
0.0
 40
0.0200000000000004
100
AcDbArc
 50
0.0
 51
52.4184423812
  0
LINE
  5
20D
330
1F
100
AcDbEntity
  8
0
  6
Continuous
 62
     7
370
    30
100
AcDbLine
 10
4.21193473
 20
4.8799154004
 30
0.0
 11
4.21193473
 21
4.8740585825
 31
0.0
  0
ARC
  5
20E
330
1F
100
AcDbEntity
  8
0
  6
Continuous
 62
     7
370
    30
100
AcDbCircle
 10
3.9503340335
 20
4.8278920291
 30
0.0
 40
0.0620000000000003
100
AcDbArc
 50
90.0
 51
180.0
  0
LINE
  5
20F
330
1F
100
AcDbEntity
  8
0
  6
Continuous
 62
     7
370
    30
100
AcDbLine
 10
4.2322951281
 20
4.7860001891
 30
0.0
 11
4.21193473
 21
4.7742451291
 31
0.0
  0
LINE
  5
210
330
1F
100
AcDbEntity
  8
0
  6
Continuous
 62
     7
370
    30
100
AcDbLine
 10
4.2322951281
 20
4.7507767627
 30
0.0
 11
4.21193473
 21
4.7390217027
 31
0.0
  0
LINE
  5
211
330
1F
100
AcDbEntity
  8
0
  6
Continuous
 62
     7
370
    30
100
AcDbLine
 10
4.21193473
 20
4.7331648845
 30
0.0
 11
4.2322951281
 21
4.7214098336
 31
0.0
  0
LINE
  5
212
330
1F
100
AcDbEntity
  8
0
  6
Continuous
 62
     7
370
    30
100
AcDbLine
 10
4.2322951281
 20
4.7155533363
 30
0.0
 11
4.21193473
 21
4.7037982854
 31
0.0
  0
LINE
  5
213
330
1F
100
AcDbEntity
  8
0
  6
Continuous
 62
     7
370
    30
100
AcDbLine
 10
4.3263340685
 20
4.8898920296
 30
0.0
 11
4.229214797
 21
4.8898920296
 31
0.0
  0
LINE
  5
214
330
1F
100
AcDbEntity
  8
0
  6
Continuous
 62
     7
370
    30
100
AcDbLine
 10
4.229214797
 20
4.8898920296
 30
0.0
 11
4.21193473
 21
4.8799154004
 31
0.0
  0
LINE
  5
215
330
1F
100
AcDbEntity
  8
0
  6
Continuous
 62
     7
370
    30
100
AcDbLine
 10
4.21193473
 20
4.8740585825
 30
0.0
 11
4.2322951281
 21
4.8623035233
 31
0.0
  0
LINE
  5
216
330
1F
100
AcDbEntity
  8
0
  6
Continuous
 62
     7
370
    30
100
AcDbLine
 10
4.2322951281
 20
4.8564470374
 30
0.0
 11
4.21193473
 21
4.8446919774
 31
0.0
  0
LINE
  5
217
330
1F
100
AcDbEntity
  8
0
  6
Continuous
 62
     7
370
    30
100
AcDbLine
 10
4.21193473
 20
4.8388351592
 30
0.0
 11
4.2322951281
 21
4.8270800992
 31
0.0
  0
LINE
  5
218
330
1F
100
AcDbEntity
  8
0
  6
Continuous
 62
     7
370
    30
100
AcDbLine
 10
4.2322951281
 20
4.821223611
 30
0.0
 11
4.21193473
 21
4.8094685555
 31
0.0
  0
LINE
  5
219
330
1F
100
AcDbEntity
  8
0
  6
Continuous
 62
     7
370
    30
100
AcDbLine
 10
4.21193473
 20
4.8036117373
 30
0.0
 11
4.2322951281
 21
4.7918566773
 31
0.0
  0
LINE
  5
21A
330
1F
100
AcDbEntity
  8
0
  6
Continuous
 62
     7
370
    30
100
AcDbLine
 10
4.0647642035
 20
4.7842217572
 30
0.0
 11
4.0647642035
 21
4.7900785753
 31
0.0
  0
LINE
  5
21B
330
1F
100
AcDbEntity
  8
0
  6
Continuous
 62
     7
370
    30
100
AcDbLine
 10
4.21193473
 20
4.7683883109
 30
0.0
 11
4.2322951281
 21
4.7566332509
 31
0.0
  0
LINE
  5
21C
330
1F
100
AcDbEntity
  8
0
  6
Continuous
 62
     7
370
    30
100
AcDbLine
 10
4.0444038787
 20
4.8429135454
 30
0.0
 11
4.0647642035
 21
4.8546686054
 31
0.0
  0
LINE
  5
21D
330
1F
100
AcDbEntity
  8
0
  6
Continuous
 62
     7
370
    30
100
AcDbLine
 10
4.0647642035
 20
4.8194451836
 30
0.0
 11
4.0647642035
 21
4.8253020018
 31
0.0
  0
LINE
  5
21E
330
1F
100
AcDbEntity
  8
0
  6
Continuous
 62
     7
370
    30
100
AcDbLine
 10
4.0444038787
 20
4.8018336354
 30
0.0
 11
4.0444038787
 21
4.8076901236
 31
0.0
  0
LINE
  5
21F
330
1F
100
AcDbEntity
  8
0
  6
Continuous
 62
     7
370
    30
100
AcDbLine
 10
4.2322951281
 20
4.7214098336
 30
0.0
 11
4.2322951281
 21
4.7155533363
 31
0.0
  0
LINE
  5
220
330
1F
100
AcDbEntity
  8
0
  6
Continuous
 62
     7
370
    30
100
AcDbLine
 10
4.0444038787
 20
4.8370570618
 30
0.0
 11
4.0444038787
 21
4.8429135454
 31
0.0
  0
LINE
  5
221
330
1F
100
AcDbEntity
  8
0
  6
Continuous
 62
     7
370
    30
100
AcDbLine
 10
5.3147642159
 20
4.8898920296
 30
0.0
 11
5.2003340319
 21
4.8898920296
 31
0.0
  0
LINE
  5
222
330
1F
100
AcDbEntity
  8
0
  6
Continuous
 62
     7
370
    30
100
AcDbLine
 10
5.3147642159
 20
4.7137749135
 30
0.0
 11
5.3147642159
 21
4.7196317225
 31
0.0
  0
LINE
  5
223
330
1F
100
AcDbEntity
  8
0
  6
Continuous
 62
     7
370
    30
100
AcDbLine
 10
5.6383340304
 20
4.8278920273
 30
0.0
 11
5.6383340304
 21
4.8263030498
 31
0.0
  0
ARC
  5
224
330
1F
100
AcDbEntity
  8
0
  6
Continuous
 62
     7
370
    30
100
AcDbCircle
 10
5.6283340335
 20
4.8263030498
 30
0.0
 40
0.0099999999999901
100
AcDbArc
 50
246.7301760415
 51
0.0
  0
ARC
  5
225
330
1F
100
AcDbEntity
  8
0
  6
Continuous
 62
     7
370
    30
100
AcDbCircle
 10
5.5963340335
 20
4.7518920291
 30
0.0
 40
0.0710000000000077
100
AcDbArc
 50
66.7301760415
 51
232.4184423812
  0
LINE
  5
226
330
1F
100
AcDbEntity
  8
0
  6
Continuous
 62
     7
370
    30
100
AcDbLine
 10
5.5608340407
 20
4.514892041
 30
0.0
 11
5.5608340407
 21
4.6797758096
 31
0.0
  0
LINE
  5
227
330
1F
100
AcDbEntity
  8
0
  6
Continuous
 62
     7
370
    30
100
AcDbLine
 10
5.5608340407
 20
4.514892041
 30
0.0
 11
5.2158340262
 21
4.514892041
 31
0.0
  0
LINE
  5
228
330
1F
100
AcDbEntity
  8
0
  6
Continuous
 62
     7
370
    30
100
AcDbLine
 10
5.2158340262
 20
4.6797758096
 30
0.0
 11
5.2158340262
 21
4.514892041
 31
0.0
  0
ARC
  5
229
330
1F
100
AcDbEntity
  8
0
  6
Continuous
 62
     7
370
    30
100
AcDbCircle
 10
5.2358340335
 20
4.6797758035
 30
0.0
 40
0.0199999999999986
100
AcDbArc
 50
127.5815576187
 51
180.0
  0
ARC
  5
22A
330
1F
100
AcDbEntity
  8
0
  6
Continuous
 62
     7
370
    30
100
AcDbCircle
 10
5.1803340335
 20
4.7518920291
 30
0.0
 40
0.0710000000000112
100
AcDbArc
 50
307.5815576188
 51
113.2698239585
  0
ARC
  5
22B
330
1F
100
AcDbEntity
  8
0
  6
Continuous
 62
     7
370
    30
100
AcDbCircle
 10
5.1483340335
 20
4.8263030498
 30
0.0
 40
0.0099999999999989
100
AcDbArc
 50
180.0
 51
293.2698239585
  0
LINE
  5
22C
330
1F
100
AcDbEntity
  8
0
  6
Continuous
 62
     7
370
    30
100
AcDbLine
 10
5.1383340365
 20
4.8278920273
 30
0.0
 11
5.1383340365
 21
4.8263030498
 31
0.0
  0
ARC
  5
22D
330
1F
100
AcDbEntity
  8
0
  6
Continuous
 62
     7
370
    30
100
AcDbCircle
 10
5.5408340335
 20
4.6797758035
 30
0.0
 40
0.0200000000000009
100
AcDbArc
 50
0.0
 51
52.4184423812
  0
ARC
  5
22E
330
1F
100
AcDbEntity
  8
0
  6
Continuous
 62
     7
370
    30
100
AcDbCircle
 10
5.5763340335
 20
4.8278920291
 30
0.0
 40
0.0620000000000003
100
AcDbArc
 50
0.0
 51
90.0
  0
LINE
  5
22F
330
1F
100
AcDbEntity
  8
0
  6
Continuous
 62
     7
370
    30
100
AcDbLine
 10
5.3147642159
 20
4.6785514871
 30
0.0
 11
5.3147642159
 21
4.6844083144
 31
0.0
  0
LINE
  5
230
330
1F
100
AcDbEntity
  8
0
  6
Continuous
 62
     7
370
    30
100
AcDbLine
 10
5.4822951039
 20
4.8270800992
 30
0.0
 11
5.4822951039
 21
4.821223611
 31
0.0
  0
LINE
  5
231
330
1F
100
AcDbEntity
  8
0
  6
Continuous
 62
     7
370
    30
100
AcDbLine
 10
5.2944038544
 20
4.7313867917
 30
0.0
 11
5.2944038544
 21
4.7372432799
 31
0.0
  0
LINE
  5
232
330
1F
100
AcDbEntity
  8
0
  6
Continuous
 62
     7
370
    30
100
AcDbLine
 10
5.2944038544
 20
4.766610209
 30
0.0
 11
5.2944038544
 21
4.7724666971
 31
0.0
  0
LINE
  5
233
330
1F
100
AcDbEntity
  8
0
  6
Continuous
 62
     7
370
    30
100
AcDbLine
 10
5.3147642159
 20
4.7489983399
 30
0.0
 11
5.3147642159
 21
4.7548551489
 31
0.0
  0
LINE
  5
234
330
1F
100
AcDbEntity
  8
0
  6
Continuous
 62
     7
370
    30
100
AcDbLine
 10
5.3147642159
 20
4.7548551489
 30
0.0
 11
5.2944038544
 21
4.766610209
 31
0.0
  0
LINE
  5
235
330
1F
100
AcDbEntity
  8
0
  6
Continuous
 62
     7
370
    30
100
AcDbLine
 10
5.2944038544
 20
4.7724666971
 30
0.0
 11
5.3147642159
 21
4.7842217572
 31
0.0
  0
LINE
  5
236
330
1F
100
AcDbEntity
  8
0
  6
Continuous
 62
     7
370
    30
100
AcDbLine
 10
5.3147642159
 20
4.7900785753
 30
0.0
 11
5.2944038544
 21
4.8018336354
 31
0.0
  0
LINE
  5
237
330
1F
100
AcDbEntity
  8
0
  6
Continuous
 62
     7
370
    30
100
AcDbLine
 10
5.2944038544
 20
4.8076901236
 30
0.0
 11
5.3147642159
 21
4.8194451836
 31
0.0
  0
LINE
  5
238
330
1F
100
AcDbEntity
  8
0
  6
Continuous
 62
     7
370
    30
100
AcDbLine
 10
5.3147642159
 20
4.8253020018
 30
0.0
 11
5.2944038544
 21
4.8370570618
 31
0.0
  0
LINE
  5
239
330
1F
100
AcDbEntity
  8
0
  6
Continuous
 62
     7
370
    30
100
AcDbLine
 10
5.2944038544
 20
4.8429135454
 30
0.0
 11
5.3147642159
 21
4.8546686054
 31
0.0
  0
LINE
  5
23A
330
1F
100
AcDbEntity
  8
0
  6
Continuous
 62
     7
370
    30
100
AcDbLine
 10
5.3147642159
 20
4.8605254236
 30
0.0
 11
5.2944038544
 21
4.8722804831
 31
0.0
  0
LINE
  5
23B
330
1F
100
AcDbEntity
  8
0
  6
Continuous
 62
     7
370
    30
100
AcDbLine
 10
5.2944038544
 20
4.8781369695
 30
0.0
 11
5.3147642159
 21
4.8898920296
 31
0.0
  0
LINE
  5
23C
330
1F
100
AcDbEntity
  8
0
  6
Continuous
 62
     7
370
    30
100
AcDbLine
 10
5.4822951039
 20
4.6803299282
 30
0.0
 11
5.4619347424
 21
4.668574859
 31
0.0
  0
LINE
  5
23D
330
1F
100
AcDbEntity
  8
0
  6
Continuous
 62
     7
370
    30
100
AcDbLine
 10
5.4619347424
 20
4.66271805
 30
0.0
 11
5.4822951039
 21
4.6509629808
 31
0.0
  0
LINE
  5
23E
330
1F
100
AcDbEntity
  8
0
  6
Continuous
 62
     7
370
    30
100
AcDbLine
 10
5.4822951039
 20
4.6451065017
 30
0.0
 11
5.477693857
 21
4.6424499591
 31
0.0
  0
ARC
  5
23F
330
1F
100
AcDbEntity
  8
0
  6
Continuous
 62
     7
370
    30
100
AcDbCircle
 10
5.4873669684
 20
4.6399140513
 30
0.0
 40
0.0100000000000086
100
AcDbArc
 50
165.3098749059
 51
203.8403348298
  0
ARC
  5
240
330
1F
100
AcDbEntity
  8
0
  6
Continuous
 62
     7
370
    30
100
AcDbCircle
 10
5.4703340335
 20
4.6058920291
 30
0.0
 40
0.0310000000000004
100
AcDbArc
 50
270.0
 51
75.2623825484
  0
LINE
  5
241
330
1F
100
AcDbEntity
  8
0
  6
Continuous
 62
     7
370
    30
100
AcDbLine
 10
5.4703340345
 20
4.5748920212
 30
0.0
 11
5.3063340324
 21
4.5748920212
 31
0.0
  0
ARC
  5
242
330
1F
100
AcDbEntity
  8
0
  6
Continuous
 62
     7
370
    30
100
AcDbCircle
 10
5.3063340335
 20
4.6058920291
 30
0.0
 40
0.0310000000000005
100
AcDbArc
 50
95.4495226951
 51
270.0
  0
LINE
  5
243
330
1F
100
AcDbEntity
  8
0
  6
Continuous
 62
     7
370
    30
100
AcDbLine
 10
5.3147650271
 20
4.6433192974
 30
0.0
 11
5.3147650271
 21
4.6491844113
 31
0.0
  0
LINE
  5
244
330
1F
100
AcDbEntity
  8
0
  6
Continuous
 62
     7
370
    30
100
AcDbLine
 10
5.2944038544
 20
4.6609399388
 30
0.0
 11
5.2944038544
 21
4.6667964362
 31
0.0
  0
LINE
  5
245
330
1F
100
AcDbEntity
  8
0
  6
Continuous
 62
     7
370
    30
100
AcDbLine
 10
5.3033899989
 20
4.6367519149
 30
0.0
 11
5.3147650271
 21
4.6433192974
 31
0.0
  0
LINE
  5
246
330
1F
100
AcDbEntity
  8
0
  6
Continuous
 62
     7
370
    30
100
AcDbLine
 10
5.2944038544
 20
4.6961633653
 30
0.0
 11
5.2944038544
 21
4.7020198443
 31
0.0
  0
LINE
  5
247
330
1F
100
AcDbEntity
  8
0
  6
Continuous
 62
     7
370
    30
100
AcDbLine
 10
5.2944038544
 20
4.6667964362
 30
0.0
 11
5.3147642159
 21
4.6785514871
 31
0.0
  0
LINE
  5
248
330
1F
100
AcDbEntity
  8
0
  6
Continuous
 62
     7
370
    30
100
AcDbLine
 10
5.3147642159
 20
4.6844083144
 30
0.0
 11
5.2944038544
 21
4.6961633653
 31
0.0
  0
LINE
  5
249
330
1F
100
AcDbEntity
  8
0
  6
Continuous
 62
     7
370
    30
100
AcDbLine
 10
5.2944038544
 20
4.7020198443
 30
0.0
 11
5.3147642159
 21
4.7137749135
 31
0.0
  0
LINE
  5
24A
330
1F
100
AcDbEntity
  8
0
  6
Continuous
 62
     7
370
    30
100
AcDbLine
 10
5.3147642159
 20
4.7842217572
 30
0.0
 11
5.3147642159
 21
4.7900785753
 31
0.0
  0
LINE
  5
24B
330
1F
100
AcDbEntity
  8
0
  6
Continuous
 62
     7
370
    30
100
AcDbLine
 10
5.2944038544
 20
4.7372432799
 30
0.0
 11
5.3147642159
 21
4.7489983399
 31
0.0
  0
LINE
  5
24C
330
1F
100
AcDbEntity
  8
0
  6
Continuous
 62
     7
370
    30
100
AcDbLine
 10
5.2944038544
 20
4.8370570618
 30
0.0
 11
5.2944038544
 21
4.8429135454
 31
0.0
  0
LINE
  5
24D
330
1F
100
AcDbEntity
  8
0
  6
Continuous
 62
     7
370
    30
100
AcDbLine
 10
5.3147642159
 20
4.8546686054
 30
0.0
 11
5.3147642159
 21
4.8605254236
 31
0.0
  0
LINE
  5
24E
330
1F
100
AcDbEntity
  8
0
  6
Continuous
 62
     7
370
    30
100
AcDbLine
 10
5.2944038544
 20
4.8722804831
 30
0.0
 11
5.2944038544
 21
4.8781369695
 31
0.0
  0
LINE
  5
24F
330
1F
100
AcDbEntity
  8
0
  6
Continuous
 62
     7
370
    30
100
AcDbLine
 10
5.4619347424
 20
4.8799154004
 30
0.0
 11
5.4619347424
 21
4.8740585825
 31
0.0
  0
LINE
  5
250
330
1F
100
AcDbEntity
  8
0
  6
Continuous
 62
     7
370
    30
100
AcDbLine
 10
5.4822951039
 20
4.8623035233
 30
0.0
 11
5.4822951039
 21
4.8564470374
 31
0.0
  0
LINE
  5
251
330
1F
100
AcDbEntity
  8
0
  6
Continuous
 62
     7
370
    30
100
AcDbLine
 10
5.4619347424
 20
4.8446919774
 30
0.0
 11
5.4619347424
 21
4.8388351592
 31
0.0
  0
ARC
  5
252
330
1F
100
AcDbEntity
  8
0
  6
Continuous
 62
     7
370
    30
100
AcDbCircle
 10
5.2003340335
 20
4.8278920291
 30
0.0
 40
0.0620000000000003
100
AcDbArc
 50
90.0
 51
180.0
  0
LINE
  5
253
330
1F
100
AcDbEntity
  8
0
  6
Continuous
 62
     7
370
    30
100
AcDbLine
 10
5.4619347424
 20
4.8094685555
 30
0.0
 11
5.4619347424
 21
4.8036117373
 31
0.0
  0
LINE
  5
254
330
1F
100
AcDbEntity
  8
0
  6
Continuous
 62
     7
370
    30
100
AcDbLine
 10
5.4822951039
 20
4.7918566773
 30
0.0
 11
5.4822951039
 21
4.7860001891
 31
0.0
  0
LINE
  5
255
330
1F
100
AcDbEntity
  8
0
  6
Continuous
 62
     7
370
    30
100
AcDbLine
 10
5.4619347424
 20
4.7742451291
 30
0.0
 11
5.4619347424
 21
4.7683883109
 31
0.0
  0
LINE
  5
256
330
1F
100
AcDbEntity
  8
0
  6
Continuous
 62
     7
370
    30
100
AcDbLine
 10
5.4822951039
 20
4.7566332509
 30
0.0
 11
5.4822951039
 21
4.7507767627
 31
0.0
  0
LINE
  5
257
330
1F
100
AcDbEntity
  8
0
  6
Continuous
 62
     7
370
    30
100
AcDbLine
 10
5.4619347424
 20
4.7390217027
 30
0.0
 11
5.4619347424
 21
4.7331648845
 31
0.0
  0
LINE
  5
258
330
1F
100
AcDbEntity
  8
0
  6
Continuous
 62
     7
370
    30
100
AcDbLine
 10
5.4822951039
 20
4.7214098336
 30
0.0
 11
5.4822951039
 21
4.7155533363
 31
0.0
  0
LINE
  5
259
330
1F
100
AcDbEntity
  8
0
  6
Continuous
 62
     7
370
    30
100
AcDbLine
 10
5.4619347424
 20
4.7037982854
 30
0.0
 11
5.4619347424
 21
4.6979414581
 31
0.0
  0
LINE
  5
25A
330
1F
100
AcDbEntity
  8
0
  6
Continuous
 62
     7
370
    30
100
AcDbLine
 10
5.4822951039
 20
4.6861864072
 30
0.0
 11
5.4822951039
 21
4.6803299282
 31
0.0
  0
LINE
  5
25B
330
1F
100
AcDbEntity
  8
0
  6
Continuous
 62
     7
370
    30
100
AcDbLine
 10
5.4619347424
 20
4.668574859
 30
0.0
 11
5.4619347424
 21
4.66271805
 31
0.0
  0
LINE
  5
25C
330
1F
100
AcDbEntity
  8
0
  6
Continuous
 62
     7
370
    30
100
AcDbLine
 10
5.4822951039
 20
4.6509629808
 30
0.0
 11
5.4822951039
 21
4.6451065017
 31
0.0
  0
LINE
  5
25D
330
1F
100
AcDbEntity
  8
0
  6
Continuous
 62
     7
370
    30
100
AcDbLine
 10
5.4822951039
 20
4.7860001891
 30
0.0
 11
5.4619347424
 21
4.7742451291
 31
0.0
  0
LINE
  5
25E
330
1F
100
AcDbEntity
  8
0
  6
Continuous
 62
     7
370
    30
100
AcDbLine
 10
5.3147650271
 20
4.6491844113
 30
0.0
 11
5.2944038544
 21
4.6609399388
 31
0.0
  0
LINE
  5
25F
330
1F
100
AcDbEntity
  8
0
  6
Continuous
 62
     7
370
    30
100
AcDbLine
 10
5.4619347424
 20
4.7683883109
 30
0.0
 11
5.4822951039
 21
4.7566332509
 31
0.0
  0
LINE
  5
260
330
1F
100
AcDbEntity
  8
0
  6
Continuous
 62
     7
370
    30
100
AcDbLine
 10
5.4822951039
 20
4.7507767627
 30
0.0
 11
5.4619347424
 21
4.7390217027
 31
0.0
  0
LINE
  5
261
330
1F
100
AcDbEntity
  8
0
  6
Continuous
 62
     7
370
    30
100
AcDbLine
 10
5.4619347424
 20
4.7331648845
 30
0.0
 11
5.4822951039
 21
4.7214098336
 31
0.0
  0
LINE
  5
262
330
1F
100
AcDbEntity
  8
0
  6
Continuous
 62
     7
370
    30
100
AcDbLine
 10
5.4822951039
 20
4.7155533363
 30
0.0
 11
5.4619347424
 21
4.7037982854
 31
0.0
  0
LINE
  5
263
330
1F
100
AcDbEntity
  8
0
  6
Continuous
 62
     7
370
    30
100
AcDbLine
 10
5.3147642159
 20
4.7196317225
 30
0.0
 11
5.2944038544
 21
4.7313867917
 31
0.0
  0
LINE
  5
264
330
1F
100
AcDbEntity
  8
0
  6
Continuous
 62
     7
370
    30
100
AcDbLine
 10
5.576334035
 20
4.8898920296
 30
0.0
 11
5.4792147728
 21
4.8898920296
 31
0.0
  0
LINE
  5
265
330
1F
100
AcDbEntity
  8
0
  6
Continuous
 62
     7
370
    30
100
AcDbLine
 10
5.4792147728
 20
4.8898920296
 30
0.0
 11
5.4619347424
 21
4.8799154004
 31
0.0
  0
LINE
  5
266
330
1F
100
AcDbEntity
  8
0
  6
Continuous
 62
     7
370
    30
100
AcDbLine
 10
5.4619347424
 20
4.8740585825
 30
0.0
 11
5.4822951039
 21
4.8623035233
 31
0.0
  0
LINE
  5
267
330
1F
100
AcDbEntity
  8
0
  6
Continuous
 62
     7
370
    30
100
AcDbLine
 10
5.4822951039
 20
4.8564470374
 30
0.0
 11
5.4619347424
 21
4.8446919774
 31
0.0
  0
LINE
  5
268
330
1F
100
AcDbEntity
  8
0
  6
Continuous
 62
     7
370
    30
100
AcDbLine
 10
5.4619347424
 20
4.8388351592
 30
0.0
 11
5.4822951039
 21
4.8270800992
 31
0.0
  0
LINE
  5
269
330
1F
100
AcDbEntity
  8
0
  6
Continuous
 62
     7
370
    30
100
AcDbLine
 10
5.4822951039
 20
4.821223611
 30
0.0
 11
5.4619347424
 21
4.8094685555
 31
0.0
  0
LINE
  5
26A
330
1F
100
AcDbEntity
  8
0
  6
Continuous
 62
     7
370
    30
100
AcDbLine
 10
5.4619347424
 20
4.8036117373
 30
0.0
 11
5.4822951039
 21
4.7918566773
 31
0.0
  0
LINE
  5
26B
330
1F
100
AcDbEntity
  8
0
  6
Continuous
 62
     7
370
    30
100
AcDbLine
 10
5.2944038544
 20
4.8018336354
 30
0.0
 11
5.2944038544
 21
4.8076901236
 31
0.0
  0
LINE
  5
26C
330
1F
100
AcDbEntity
  8
0
  6
Continuous
 62
     7
370
    30
100
AcDbLine
 10
5.3147642159
 20
4.8194451836
 30
0.0
 11
5.3147642159
 21
4.8253020018
 31
0.0
  0
LINE
  5
26D
330
1F
100
AcDbEntity
  8
0
  6
Continuous
 62
     7
370
    30
100
AcDbLine
 10
5.4619347424
 20
4.6979414581
 30
0.0
 11
5.4822951039
 21
4.6861864072
 31
0.0
  0
LINE
  5
26E
330
1F
100
AcDbEntity
  8
0
  6
Continuous
 62
     7
370
    30
100
AcDbLine
 10
6.5647642099
 20
4.8898920296
 30
0.0
 11
6.4503339985
 21
4.8898920296
 31
0.0
  0
LINE
  5
26F
330
1F
100
AcDbEntity
  8
0
  6
Continuous
 62
     7
370
    30
100
AcDbLine
 10
6.5647642099
 20
4.6785514871
 30
0.0
 11
6.5647642099
 21
4.6844083144
 31
0.0
  0
ARC
  5
270
330
1F
100
AcDbEntity
  8
0
  6
Continuous
 62
     7
370
    30
100
AcDbCircle
 10
6.5563340335
 20
4.6058920291
 30
0.0
 40
0.0310000000000006
100
AcDbArc
 50
95.4495226951
 51
270.0
  0
LINE
  5
271
330
1F
100
AcDbEntity
  8
0
  6
Continuous
 62
     7
370
    30
100
AcDbLine
 10
6.7203340194
 20
4.5748920212
 30
0.0
 11
6.556334054
 21
4.5748920212
 31
0.0
  0
ARC
  5
272
330
1F
100
AcDbEntity
  8
0
  6
Continuous
 62
     7
370
    30
100
AcDbCircle
 10
6.7373669684
 20
4.6399140513
 30
0.0
 40
0.0100000000000086
100
AcDbArc
 50
165.3098749059
 51
203.8403348298
  0
LINE
  5
273
330
1F
100
AcDbEntity
  8
0
  6
Continuous
 62
     7
370
    30
100
AcDbLine
 10
6.7119348098
 20
4.7331648845
 30
0.0
 11
6.7322951346
 21
4.7214098336
 31
0.0
  0
LINE
  5
274
330
1F
100
AcDbEntity
  8
0
  6
Continuous
 62
     7
370
    30
100
AcDbLine
 10
6.7322951346
 20
4.7507767627
 30
0.0
 11
6.7119348098
 21
4.7390217027
 31
0.0
  0
LINE
  5
275
330
1F
100
AcDbEntity
  8
0
  6
Continuous
 62
     7
370
    30
100
AcDbLine
 10
6.7119348098
 20
4.7683883109
 30
0.0
 11
6.7322951346
 21
4.7566332509
 31
0.0
  0
LINE
  5
276
330
1F
100
AcDbEntity
  8
0
  6
Continuous
 62
     7
370
    30
100
AcDbLine
 10
6.7322951346
 20
4.7860001891
 30
0.0
 11
6.7119348098
 21
4.7742451291
 31
0.0
  0
LINE
  5
277
330
1F
100
AcDbEntity
  8
0
  6
Continuous
 62
     7
370
    30
100
AcDbLine
 10
6.7119348098
 20
4.8388351592
 30
0.0
 11
6.7322951346
 21
4.8270800992
 31
0.0
  0
LINE
  5
278
330
1F
100
AcDbEntity
  8
0
  6
Continuous
 62
     7
370
    30
100
AcDbLine
 10
6.7322951346
 20
4.8564470374
 30
0.0
 11
6.7119348098
 21
4.8446919774
 31
0.0
  0
ARC
  5
279
330
1F
100
AcDbEntity
  8
0
  6
Continuous
 62
     7
370
    30
100
AcDbCircle
 10
6.8263340335
 20
4.8278920291
 30
0.0
 40
0.0620000000000003
100
AcDbArc
 50
0.0
 51
90.0
  0
LINE
  5
27A
330
1F
100
AcDbEntity
  8
0
  6
Continuous
 62
     7
370
    30
100
AcDbLine
 10
6.888334052
 20
4.8278920273
 30
0.0
 11
6.888334052
 21
4.8263030498
 31
0.0
  0
ARC
  5
27B
330
1F
100
AcDbEntity
  8
0
  6
Continuous
 62
     7
370
    30
100
AcDbCircle
 10
6.8783340335
 20
4.8263030498
 30
0.0
 40
0.0099999999999901
100
AcDbArc
 50
246.7301760415
 51
0.0
  0
ARC
  5
27C
330
1F
100
AcDbEntity
  8
0
  6
Continuous
 62
     7
370
    30
100
AcDbCircle
 10
6.8463340335
 20
4.7518920291
 30
0.0
 40
0.0710000000000077
100
AcDbArc
 50
66.7301760415
 51
232.4184423812
  0
ARC
  5
27D
330
1F
100
AcDbEntity
  8
0
  6
Continuous
 62
     7
370
    30
100
AcDbCircle
 10
6.7908340335
 20
4.6797758035
 30
0.0
 40
0.0200000000000009
100
AcDbArc
 50
0.0
 51
52.4184423812
  0
LINE
  5
27E
330
1F
100
AcDbEntity
  8
0
  6
Continuous
 62
     7
370
    30
100
AcDbLine
 10
6.8108340806
 20
4.514892041
 30
0.0
 11
6.8108340806
 21
4.6797758096
 31
0.0
  0
LINE
  5
27F
330
1F
100
AcDbEntity
  8
0
  6
Continuous
 62
     7
370
    30
100
AcDbLine
 10
6.8108340806
 20
4.514892041
 30
0.0
 11
6.4658340661
 21
4.514892041
 31
0.0
  0
LINE
  5
280
330
1F
100
AcDbEntity
  8
0
  6
Continuous
 62
     7
370
    30
100
AcDbLine
 10
6.4658340661
 20
4.6797758096
 30
0.0
 11
6.4658340661
 21
4.514892041
 31
0.0
  0
ARC
  5
281
330
1F
100
AcDbEntity
  8
0
  6
Continuous
 62
     7
370
    30
100
AcDbCircle
 10
6.4858340335
 20
4.6797758035
 30
0.0
 40
0.0199999999999986
100
AcDbArc
 50
127.5815576187
 51
180.0
  0
ARC
  5
282
330
1F
100
AcDbEntity
  8
0
  6
Continuous
 62
     7
370
    30
100
AcDbCircle
 10
6.4303340335
 20
4.7518920291
 30
0.0
 40
0.0710000000000112
100
AcDbArc
 50
307.5815576188
 51
113.2698239585
  0
ARC
  5
283
330
1F
100
AcDbEntity
  8
0
  6
Continuous
 62
     7
370
    30
100
AcDbCircle
 10
6.3983340335
 20
4.8263030498
 30
0.0
 40
0.0099999999999989
100
AcDbArc
 50
180.0
 51
293.2698239585
  0
LINE
  5
284
330
1F
100
AcDbEntity
  8
0
  6
Continuous
 62
     7
370
    30
100
AcDbLine
 10
6.3883340214
 20
4.8278920273
 30
0.0
 11
6.3883340214
 21
4.8263030498
 31
0.0
  0
LINE
  5
285
330
1F
100
AcDbEntity
  8
0
  6
Continuous
 62
     7
370
    30
100
AcDbLine
 10
6.5647642099
 20
4.7548551489
 30
0.0
 11
6.5444038851
 21
4.766610209
 31
0.0
  0
ARC
  5
286
330
1F
100
AcDbEntity
  8
0
  6
Continuous
 62
     7
370
    30
100
AcDbCircle
 10
6.7203340335
 20
4.6058920291
 30
0.0
 40
0.0310000000000004
100
AcDbArc
 50
270.0
 51
75.2623825484
  0
LINE
  5
287
330
1F
100
AcDbEntity
  8
0
  6
Continuous
 62
     7
370
    30
100
AcDbLine
 10
6.7322951346
 20
4.821223611
 30
0.0
 11
6.7119348098
 21
4.8094685555
 31
0.0
  0
LINE
  5
288
330
1F
100
AcDbEntity
  8
0
  6
Continuous
 62
     7
370
    30
100
AcDbLine
 10
6.5647650166
 20
4.6433192974
 30
0.0
 11
6.5647650166
 21
4.6491844113
 31
0.0
  0
LINE
  5
289
330
1F
100
AcDbEntity
  8
0
  6
Continuous
 62
     7
370
    30
100
AcDbLine
 10
6.7322951346
 20
4.8270800992
 30
0.0
 11
6.7322951346
 21
4.821223611
 31
0.0
  0
LINE
  5
28A
330
1F
100
AcDbEntity
  8
0
  6
Continuous
 62
     7
370
    30
100
AcDbLine
 10
6.7322951346
 20
4.6451065017
 30
0.0
 11
6.7276938144
 21
4.6424499591
 31
0.0
  0
LINE
  5
28B
330
1F
100
AcDbEntity
  8
0
  6
Continuous
 62
     7
370
    30
100
AcDbLine
 10
6.7119348098
 20
4.8036117373
 30
0.0
 11
6.7322951346
 21
4.7918566773
 31
0.0
  0
LINE
  5
28C
330
1F
100
AcDbEntity
  8
0
  6
Continuous
 62
     7
370
    30
100
AcDbLine
 10
6.5533899746
 20
4.6367519149
 30
0.0
 11
6.5647650166
 21
4.6433192974
 31
0.0
  0
LINE
  5
28D
330
1F
100
AcDbEntity
  8
0
  6
Continuous
 62
     7
370
    30
100
AcDbLine
 10
6.5444038851
 20
4.6961633653
 30
0.0
 11
6.5444038851
 21
4.7020198443
 31
0.0
  0
LINE
  5
28E
330
1F
100
AcDbEntity
  8
0
  6
Continuous
 62
     7
370
    30
100
AcDbLine
 10
6.5647642099
 20
4.7137749135
 30
0.0
 11
6.5647642099
 21
4.7196317225
 31
0.0
  0
LINE
  5
28F
330
1F
100
AcDbEntity
  8
0
  6
Continuous
 62
     7
370
    30
100
AcDbLine
 10
6.5444038851
 20
4.7313867917
 30
0.0
 11
6.5444038851
 21
4.7372432799
 31
0.0
  0
LINE
  5
290
330
1F
100
AcDbEntity
  8
0
  6
Continuous
 62
     7
370
    30
100
AcDbLine
 10
6.5444038851
 20
4.766610209
 30
0.0
 11
6.5444038851
 21
4.7724666971
 31
0.0
  0
LINE
  5
291
330
1F
100
AcDbEntity
  8
0
  6
Continuous
 62
     7
370
    30
100
AcDbLine
 10
6.5647642099
 20
4.7842217572
 30
0.0
 11
6.5647642099
 21
4.7900785753
 31
0.0
  0
LINE
  5
292
330
1F
100
AcDbEntity
  8
0
  6
Continuous
 62
     7
370
    30
100
AcDbLine
 10
6.8263340749
 20
4.8898920296
 30
0.0
 11
6.7292147302
 21
4.8898920296
 31
0.0
  0
LINE
  5
293
330
1F
100
AcDbEntity
  8
0
  6
Continuous
 62
     7
370
    30
100
AcDbLine
 10
6.5444038851
 20
4.7372432799
 30
0.0
 11
6.5647642099
 21
4.7489983399
 31
0.0
  0
LINE
  5
294
330
1F
100
AcDbEntity
  8
0
  6
Continuous
 62
     7
370
    30
100
AcDbLine
 10
6.7292147302
 20
4.8898920296
 30
0.0
 11
6.7119348098
 21
4.8799154004
 31
0.0
  0
LINE
  5
295
330
1F
100
AcDbEntity
  8
0
  6
Continuous
 62
     7
370
    30
100
AcDbLine
 10
6.5647642099
 20
4.7489983399
 30
0.0
 11
6.5647642099
 21
4.7548551489
 31
0.0
  0
LINE
  5
296
330
1F
100
AcDbEntity
  8
0
  6
Continuous
 62
     7
370
    30
100
AcDbLine
 10
6.5444038851
 20
4.7724666971
 30
0.0
 11
6.5647642099
 21
4.7842217572
 31
0.0
  0
LINE
  5
297
330
1F
100
AcDbEntity
  8
0
  6
Continuous
 62
     7
370
    30
100
AcDbLine
 10
6.5647642099
 20
4.7900785753
 30
0.0
 11
6.5444038851
 21
4.8018336354
 31
0.0
  0
LINE
  5
298
330
1F
100
AcDbEntity
  8
0
  6
Continuous
 62
     7
370
    30
100
AcDbLine
 10
6.5647642099
 20
4.8253020018
 30
0.0
 11
6.5444038851
 21
4.8370570618
 31
0.0
  0
LINE
  5
299
330
1F
100
AcDbEntity
  8
0
  6
Continuous
 62
     7
370
    30
100
AcDbLine
 10
6.5444038851
 20
4.8429135454
 30
0.0
 11
6.5647642099
 21
4.8546686054
 31
0.0
  0
LINE
  5
29A
330
1F
100
AcDbEntity
  8
0
  6
Continuous
 62
     7
370
    30
100
AcDbLine
 10
6.5647642099
 20
4.8605254236
 30
0.0
 11
6.5444038851
 21
4.8722804831
 31
0.0
  0
LINE
  5
29B
330
1F
100
AcDbEntity
  8
0
  6
Continuous
 62
     7
370
    30
100
AcDbLine
 10
6.5444038851
 20
4.8781369695
 30
0.0
 11
6.5647642099
 21
4.8898920296
 31
0.0
  0
LINE
  5
29C
330
1F
100
AcDbEntity
  8
0
  6
Continuous
 62
     7
370
    30
100
AcDbLine
 10
6.7119348098
 20
4.8094685555
 30
0.0
 11
6.7119348098
 21
4.8036117373
 31
0.0
  0
LINE
  5
29D
330
1F
100
AcDbEntity
  8
0
  6
Continuous
 62
     7
370
    30
100
AcDbLine
 10
6.7322951346
 20
4.7155533363
 30
0.0
 11
6.7119348098
 21
4.7037982854
 31
0.0
  0
LINE
  5
29E
330
1F
100
AcDbEntity
  8
0
  6
Continuous
 62
     7
370
    30
100
AcDbLine
 10
6.7119348098
 20
4.6979414581
 30
0.0
 11
6.7322951346
 21
4.6861864072
 31
0.0
  0
LINE
  5
29F
330
1F
100
AcDbEntity
  8
0
  6
Continuous
 62
     7
370
    30
100
AcDbLine
 10
6.7322951346
 20
4.6803299282
 30
0.0
 11
6.7119348098
 21
4.668574859
 31
0.0
  0
LINE
  5
2A0
330
1F
100
AcDbEntity
  8
0
  6
Continuous
 62
     7
370
    30
100
AcDbLine
 10
6.7119348098
 20
4.66271805
 30
0.0
 11
6.7322951346
 21
4.6509629808
 31
0.0
  0
LINE
  5
2A1
330
1F
100
AcDbEntity
  8
0
  6
Continuous
 62
     7
370
    30
100
AcDbLine
 10
6.5444038851
 20
4.6609399388
 30
0.0
 11
6.5444038851
 21
4.6667964362
 31
0.0
  0
LINE
  5
2A2
330
1F
100
AcDbEntity
  8
0
  6
Continuous
 62
     7
370
    30
100
AcDbLine
 10
6.5647650166
 20
4.6491844113
 30
0.0
 11
6.5444038851
 21
4.6609399388
 31
0.0
  0
LINE
  5
2A3
330
1F
100
AcDbEntity
  8
0
  6
Continuous
 62
     7
370
    30
100
AcDbLine
 10
6.5444038851
 20
4.6667964362
 30
0.0
 11
6.5647642099
 21
4.6785514871
 31
0.0
  0
LINE
  5
2A4
330
1F
100
AcDbEntity
  8
0
  6
Continuous
 62
     7
370
    30
100
AcDbLine
 10
6.5647642099
 20
4.6844083144
 30
0.0
 11
6.5444038851
 21
4.6961633653
 31
0.0
  0
LINE
  5
2A5
330
1F
100
AcDbEntity
  8
0
  6
Continuous
 62
     7
370
    30
100
AcDbLine
 10
6.5444038851
 20
4.7020198443
 30
0.0
 11
6.5647642099
 21
4.7137749135
 31
0.0
  0
LINE
  5
2A6
330
1F
100
AcDbEntity
  8
0
  6
Continuous
 62
     7
370
    30
100
AcDbLine
 10
6.5647642099
 20
4.7196317225
 30
0.0
 11
6.5444038851
 21
4.7313867917
 31
0.0
  0
LINE
  5
2A7
330
1F
100
AcDbEntity
  8
0
  6
Continuous
 62
     7
370
    30
100
AcDbLine
 10
6.5444038851
 20
4.8018336354
 30
0.0
 11
6.5444038851
 21
4.8076901236
 31
0.0
  0
LINE
  5
2A8
330
1F
100
AcDbEntity
  8
0
  6
Continuous
 62
     7
370
    30
100
AcDbLine
 10
6.5647642099
 20
4.8194451836
 30
0.0
 11
6.5647642099
 21
4.8253020018
 31
0.0
  0
LINE
  5
2A9
330
1F
100
AcDbEntity
  8
0
  6
Continuous
 62
     7
370
    30
100
AcDbLine
 10
6.7119348098
 20
4.8740585825
 30
0.0
 11
6.7322951346
 21
4.8623035233
 31
0.0
  0
LINE
  5
2AA
330
1F
100
AcDbEntity
  8
0
  6
Continuous
 62
     7
370
    30
100
AcDbLine
 10
6.5444038851
 20
4.8370570618
 30
0.0
 11
6.5444038851
 21
4.8429135454
 31
0.0
  0
LINE
  5
2AB
330
1F
100
AcDbEntity
  8
0
  6
Continuous
 62
     7
370
    30
100
AcDbLine
 10
6.5647642099
 20
4.8546686054
 30
0.0
 11
6.5647642099
 21
4.8605254236
 31
0.0
  0
LINE
  5
2AC
330
1F
100
AcDbEntity
  8
0
  6
Continuous
 62
     7
370
    30
100
AcDbLine
 10
6.5444038851
 20
4.8722804831
 30
0.0
 11
6.5444038851
 21
4.8781369695
 31
0.0
  0
LINE
  5
2AD
330
1F
100
AcDbEntity
  8
0
  6
Continuous
 62
     7
370
    30
100
AcDbLine
 10
6.5444038851
 20
4.8076901236
 30
0.0
 11
6.5647642099
 21
4.8194451836
 31
0.0
  0
LINE
  5
2AE
330
1F
100
AcDbEntity
  8
0
  6
Continuous
 62
     7
370
    30
100
AcDbLine
 10
6.7119348098
 20
4.8799154004
 30
0.0
 11
6.7119348098
 21
4.8740585825
 31
0.0
  0
LINE
  5
2AF
330
1F
100
AcDbEntity
  8
0
  6
Continuous
 62
     7
370
    30
100
AcDbLine
 10
6.7322951346
 20
4.8623035233
 30
0.0
 11
6.7322951346
 21
4.8564470374
 31
0.0
  0
LINE
  5
2B0
330
1F
100
AcDbEntity
  8
0
  6
Continuous
 62
     7
370
    30
100
AcDbLine
 10
6.7119348098
 20
4.8446919774
 30
0.0
 11
6.7119348098
 21
4.8388351592
 31
0.0
  0
ARC
  5
2B1
330
1F
100
AcDbEntity
  8
0
  6
Continuous
 62
     7
370
    30
100
AcDbCircle
 10
6.4503340335
 20
4.8278920291
 30
0.0
 40
0.0620000000000003
100
AcDbArc
 50
90.0
 51
180.0
  0
LINE
  5
2B2
330
1F
100
AcDbEntity
  8
0
  6
Continuous
 62
     7
370
    30
100
AcDbLine
 10
6.7322951346
 20
4.7918566773
 30
0.0
 11
6.7322951346
 21
4.7860001891
 31
0.0
  0
LINE
  5
2B3
330
1F
100
AcDbEntity
  8
0
  6
Continuous
 62
     7
370
    30
100
AcDbLine
 10
6.7119348098
 20
4.7742451291
 30
0.0
 11
6.7119348098
 21
4.7683883109
 31
0.0
  0
LINE
  5
2B4
330
1F
100
AcDbEntity
  8
0
  6
Continuous
 62
     7
370
    30
100
AcDbLine
 10
6.7322951346
 20
4.7566332509
 30
0.0
 11
6.7322951346
 21
4.7507767627
 31
0.0
  0
LINE
  5
2B5
330
1F
100
AcDbEntity
  8
0
  6
Continuous
 62
     7
370
    30
100
AcDbLine
 10
6.7119348098
 20
4.7390217027
 30
0.0
 11
6.7119348098
 21
4.7331648845
 31
0.0
  0
LINE
  5
2B6
330
1F
100
AcDbEntity
  8
0
  6
Continuous
 62
     7
370
    30
100
AcDbLine
 10
6.7322951346
 20
4.7214098336
 30
0.0
 11
6.7322951346
 21
4.7155533363
 31
0.0
  0
LINE
  5
2B7
330
1F
100
AcDbEntity
  8
0
  6
Continuous
 62
     7
370
    30
100
AcDbLine
 10
6.7119348098
 20
4.7037982854
 30
0.0
 11
6.7119348098
 21
4.6979414581
 31
0.0
  0
LINE
  5
2B8
330
1F
100
AcDbEntity
  8
0
  6
Continuous
 62
     7
370
    30
100
AcDbLine
 10
6.7322951346
 20
4.6861864072
 30
0.0
 11
6.7322951346
 21
4.6803299282
 31
0.0
  0
LINE
  5
2B9
330
1F
100
AcDbEntity
  8
0
  6
Continuous
 62
     7
370
    30
100
AcDbLine
 10
6.7119348098
 20
4.668574859
 30
0.0
 11
6.7119348098
 21
4.66271805
 31
0.0
  0
LINE
  5
2BA
330
1F
100
AcDbEntity
  8
0
  6
Continuous
 62
     7
370
    30
100
AcDbLine
 10
6.7322951346
 20
4.6509629808
 30
0.0
 11
6.7322951346
 21
4.6451065017
 31
0.0
  0
LINE
  5
2BB
330
1F
100
AcDbEntity
  8
0
  6
Continuous
 62
     7
370
    30
100
AcDbLine
 10
7.7696858172
 20
3.8022235105
 30
0.0
 11
7.6329823298
 21
3.8022235105
 31
0.0
  0
LINE
  5
2BC
330
1F
100
AcDbEntity
  8
0
  6
Continuous
 62
     7
370
    30
100
AcDbLine
 10
7.7623340888
 20
4.6011601944
 30
0.0
 11
7.6403340582
 21
4.6011601944
 31
0.0
  0
LINE
  5
2BD
330
1F
100
AcDbEntity
  8
0
  6
Continuous
 62
     7
370
    30
100
AcDbLine
 10
7.7843339813
 20
4.5884584945
 30
0.0
 11
7.618334019
 21
4.5884584945
 31
0.0
  0
LINE
  5
2BE
330
1F
100
AcDbEntity
  8
0
  6
Continuous
 62
     7
370
    30
100
AcDbLine
 10
7.7623340888
 20
4.5456046395
 30
0.0
 11
7.6403340582
 21
4.5456046395
 31
0.0
  0
LINE
  5
2BF
330
1F
100
AcDbEntity
  8
0
  6
Continuous
 62
     7
370
    30
100
AcDbLine
 10
7.7843339813
 20
4.5329029396
 30
0.0
 11
7.618334019
 21
4.5329029396
 31
0.0
  0
LINE
  5
2C0
330
1F
100
AcDbEntity
  8
0
  6
Continuous
 62
     7
370
    30
100
AcDbLine
 10
7.7623340888
 20
3.9344935358
 30
0.0
 11
7.6403340582
 21
3.9344935358
 31
0.0
  0
LINE
  5
2C1
330
1F
100
AcDbEntity
  8
0
  6
Continuous
 62
     7
370
    30
100
AcDbLine
 10
7.7843339813
 20
3.9217918359
 30
0.0
 11
7.618334019
 21
3.9217918359
 31
0.0
  0
LINE
  5
2C2
330
1F
100
AcDbEntity
  8
0
  6
Continuous
 62
     7
370
    30
100
AcDbLine
 10
7.7843339813
 20
3.9773473541
 30
0.0
 11
7.618334019
 21
3.9773473541
 31
0.0
  0
LINE
  5
2C3
330
1F
100
AcDbEntity
  8
0
  6
Continuous
 62
     7
370
    30
100
AcDbLine
 10
7.6403340582
 20
3.9646456542
 30
0.0
 11
7.7623340888
 21
3.9646456542
 31
0.0
  0
LINE
  5
2C4
330
1F
100
AcDbEntity
  8
0
  6
Continuous
 62
     7
370
    30
100
AcDbLine
 10
7.7843339813
 20
3.8662362443
 30
0.0
 11
7.618334019
 21
3.8662362443
 31
0.0
  0
LINE
  5
2C5
330
1F
100
AcDbEntity
  8
0
  6
Continuous
 62
     7
370
    30
100
AcDbLine
 10
7.6403340582
 20
3.8535345444
 30
0.0
 11
7.7623340888
 21
3.8535345444
 31
0.0
  0
LINE
  5
2C6
330
1F
100
AcDbEntity
  8
0
  6
Continuous
 62
     7
370
    30
100
AcDbLine
 10
7.7843339813
 20
3.8106807261
 30
0.0
 11
7.618334019
 21
3.8106807261
 31
0.0
  0
LINE
  5
2C7
330
1F
100
AcDbEntity
  8
0
  6
Continuous
 62
     7
370
    30
100
AcDbLine
 10
7.7623340888
 20
3.8789379443
 30
0.0
 11
7.6403340582
 21
3.8789379443
 31
0.0
  0
LINE
  5
2C8
330
1F
100
AcDbEntity
  8
0
  6
Continuous
 62
     7
370
    30
100
AcDbLine
 10
7.7623340888
 20
4.8789379734
 30
0.0
 11
7.6403340582
 21
4.8789379734
 31
0.0
  0
LINE
  5
2C9
330
1F
100
AcDbEntity
  8
0
  6
Continuous
 62
     7
370
    30
100
AcDbLine
 10
7.7843339813
 20
4.8662362678
 30
0.0
 11
7.618334019
 21
4.8662362678
 31
0.0
  0
LINE
  5
2CA
330
1F
100
AcDbEntity
  8
0
  6
Continuous
 62
     7
370
    30
100
AcDbLine
 10
7.7623340888
 20
4.6567157493
 30
0.0
 11
7.6403340582
 21
4.6567157493
 31
0.0
  0
LINE
  5
2CB
330
1F
100
AcDbEntity
  8
0
  6
Continuous
 62
     7
370
    30
100
AcDbLine
 10
7.7843339813
 20
4.6440140494
 30
0.0
 11
7.618334019
 21
4.6440140494
 31
0.0
  0
LINE
  5
2CC
330
1F
100
AcDbEntity
  8
0
  6
Continuous
 62
     7
370
    30
100
AcDbLine
 10
7.7843339813
 20
4.810680714
 30
0.0
 11
7.618334019
 21
4.810680714
 31
0.0
  0
LINE
  5
2CD
330
1F
100
AcDbEntity
  8
0
  6
Continuous
 62
     7
370
    30
100
AcDbLine
 10
7.6403340582
 20
4.7979790049
 30
0.0
 11
7.7623340888
 21
4.7979790049
 31
0.0
  0
LINE
  5
2CE
330
1F
100
AcDbEntity
  8
0
  6
Continuous
 62
     7
370
    30
100
AcDbLine
 10
7.7623340888
 20
3.823382426
 30
0.0
 11
7.6403340582
 21
3.823382426
 31
0.0
  0
LINE
  5
2CF
330
1F
100
AcDbEntity
  8
0
  6
Continuous
 62
     7
370
    30
100
AcDbLine
 10
7.7623340888
 20
3.990049054
 30
0.0
 11
7.6403340582
 21
3.990049054
 31
0.0
  0
LINE
  5
2D0
330
1F
100
AcDbEntity
  8
0
  6
Continuous
 62
     7
370
    30
100
AcDbLine
 10
7.7623340888
 20
4.7678268591
 30
0.0
 11
7.6403340582
 21
4.7678268591
 31
0.0
  0
LINE
  5
2D1
330
1F
100
AcDbEntity
  8
0
  6
Continuous
 62
     7
370
    30
100
AcDbLine
 10
7.7843339813
 20
4.7551251591
 30
0.0
 11
7.618334019
 21
4.7551251591
 31
0.0
  0
LINE
  5
2D2
330
1F
100
AcDbEntity
  8
0
  6
Continuous
 62
     7
370
    30
100
AcDbLine
 10
7.7843339813
 20
4.6995696042
 30
0.0
 11
7.618334019
 21
4.6995696042
 31
0.0
  0
LINE
  5
2D3
330
1F
100
AcDbEntity
  8
0
  6
Continuous
 62
     7
370
    30
100
AcDbLine
 10
7.6403340582
 20
4.686867886
 30
0.0
 11
7.7623340888
 21
4.686867886
 31
0.0
  0
LINE
  5
2D4
330
1F
100
AcDbEntity
  8
0
  6
Continuous
 62
     7
370
    30
100
AcDbLine
 10
7.6403340582
 20
4.5202012397
 30
0.0
 11
7.7623340888
 21
4.5202012397
 31
0.0
  0
LINE
  5
2D5
330
1F
100
AcDbEntity
  8
0
  6
Continuous
 62
     7
370
    30
100
AcDbLine
 10
7.7623340888
 20
4.8233824185
 30
0.0
 11
7.6403340582
 21
4.8233824185
 31
0.0
  0
LINE
  5
2D6
330
1F
100
AcDbEntity
  8
0
  6
Continuous
 62
     7
370
    30
100
AcDbLine
 10
7.7843339813
 20
4.0329029456
 30
0.0
 11
7.618334019
 21
4.0329029456
 31
0.0
  0
LINE
  5
2D7
330
1F
100
AcDbEntity
  8
0
  6
Continuous
 62
     7
370
    30
100
AcDbLine
 10
7.6403340582
 20
4.0202012457
 30
0.0
 11
7.7623340888
 21
4.0202012457
 31
0.0
  0
LINE
  5
2D8
330
1F
100
AcDbEntity
  8
0
  6
Continuous
 62
     7
370
    30
100
AcDbLine
 10
7.6403340582
 20
4.74242345
 30
0.0
 11
7.7623340888
 21
4.74242345
 31
0.0
  0
LINE
  5
2D9
330
1F
100
AcDbEntity
  8
0
  6
Continuous
 62
     7
370
    30
100
AcDbLine
 10
7.7623340888
 20
4.1011601638
 30
0.0
 11
7.6403340582
 21
4.1011601638
 31
0.0
  0
LINE
  5
2DA
330
1F
100
AcDbEntity
  8
0
  6
Continuous
 62
     7
370
    30
100
AcDbLine
 10
7.7843339813
 20
4.0884584639
 30
0.0
 11
7.618334019
 21
4.0884584639
 31
0.0
  0
LINE
  5
2DB
330
1F
100
AcDbEntity
  8
0
  6
Continuous
 62
     7
370
    30
100
AcDbLine
 10
7.7843339813
 20
4.2551251652
 30
0.0
 11
7.618334019
 21
4.2551251652
 31
0.0
  0
LINE
  5
2DC
330
1F
100
AcDbEntity
  8
0
  6
Continuous
 62
     7
370
    30
100
AcDbLine
 10
7.6403340582
 20
4.2424234652
 30
0.0
 11
7.7623340888
 21
4.2424234652
 31
0.0
  0
LINE
  5
2DD
330
1F
100
AcDbEntity
  8
0
  6
Continuous
 62
     7
370
    30
100
AcDbLine
 10
7.7843339813
 20
4.1995695736
 30
0.0
 11
7.618334019
 21
4.1995695736
 31
0.0
  0
LINE
  5
2DE
330
1F
100
AcDbEntity
  8
0
  6
Continuous
 62
     7
370
    30
100
AcDbLine
 10
7.6403340582
 20
4.1868678737
 30
0.0
 11
7.7623340888
 21
4.1868678737
 31
0.0
  0
LINE
  5
2DF
330
1F
100
AcDbEntity
  8
0
  6
Continuous
 62
     7
370
    30
100
AcDbLine
 10
7.7623340888
 20
4.3789379749
 30
0.0
 11
7.6403340582
 21
4.3789379749
 31
0.0
  0
LINE
  5
2E0
330
1F
100
AcDbEntity
  8
0
  6
Continuous
 62
     7
370
    30
100
AcDbLine
 10
7.7843339813
 20
4.3662362749
 30
0.0
 11
7.618334019
 21
4.3662362749
 31
0.0
  0
LINE
  5
2E1
330
1F
100
AcDbEntity
  8
0
  6
Continuous
 62
     7
370
    30
100
AcDbLine
 10
7.6403340582
 20
4.5757567762
 30
0.0
 11
7.7623340888
 21
4.5757567762
 31
0.0
  0
LINE
  5
2E2
330
1F
100
AcDbEntity
  8
0
  6
Continuous
 62
     7
370
    30
100
AcDbLine
 10
7.7623340888
 20
4.7122713042
 30
0.0
 11
7.6403340582
 21
4.7122713042
 31
0.0
  0
LINE
  5
2E3
330
1F
100
AcDbEntity
  8
0
  6
Continuous
 62
     7
370
    30
100
AcDbLine
 10
7.6403340582
 20
4.6313123311
 30
0.0
 11
7.7623340888
 21
4.6313123311
 31
0.0
  0
LINE
  5
2E4
330
1F
100
AcDbEntity
  8
0
  6
Continuous
 62
     7
370
    30
100
AcDbLine
 10
7.6403340582
 20
3.9090901359
 30
0.0
 11
7.7623340888
 21
3.9090901359
 31
0.0
  0
LINE
  5
2E5
330
1F
100
AcDbEntity
  8
0
  6
Continuous
 62
     7
370
    30
100
AcDbLine
 10
7.6403340582
 20
4.8535345621
 30
0.0
 11
7.7623340888
 21
4.8535345621
 31
0.0
  0
LINE
  5
2E6
330
1F
100
AcDbEntity
  8
0
  6
Continuous
 62
     7
370
    30
100
AcDbLine
 10
7.7843339813
 20
4.1440140554
 30
0.0
 11
7.618334019
 21
4.1440140554
 31
0.0
  0
LINE
  5
2E7
330
1F
100
AcDbEntity
  8
0
  6
Continuous
 62
     7
370
    30
100
AcDbLine
 10
7.6403340582
 20
4.1313123555
 30
0.0
 11
7.7623340888
 21
4.1313123555
 31
0.0
  0
LINE
  5
2E8
330
1F
100
AcDbEntity
  8
0
  6
Continuous
 62
     7
370
    30
100
AcDbLine
 10
7.7843339813
 20
4.4217918298
 30
0.0
 11
7.618334019
 21
4.4217918298
 31
0.0
  0
LINE
  5
2E9
330
1F
100
AcDbEntity
  8
0
  6
Continuous
 62
     7
370
    30
100
AcDbLine
 10
7.6403340582
 20
4.4090901299
 30
0.0
 11
7.7623340888
 21
4.4090901299
 31
0.0
  0
LINE
  5
2EA
330
1F
100
AcDbEntity
  8
0
  6
Continuous
 62
     7
370
    30
100
AcDbLine
 10
7.6403340582
 20
4.353534575
 30
0.0
 11
7.7623340888
 21
4.353534575
 31
0.0
  0
LINE
  5
2EB
330
1F
100
AcDbEntity
  8
0
  6
Continuous
 62
     7
370
    30
100
AcDbLine
 10
7.7843339813
 20
4.4773473847
 30
0.0
 11
7.618334019
 21
4.4773473847
 31
0.0
  0
LINE
  5
2EC
330
1F
100
AcDbEntity
  8
0
  6
Continuous
 62
     7
370
    30
100
AcDbLine
 10
7.6403340582
 20
4.4646456848
 30
0.0
 11
7.7623340888
 21
4.4646456848
 31
0.0
  0
LINE
  5
2ED
330
1F
100
AcDbEntity
  8
0
  6
Continuous
 62
     7
370
    30
100
AcDbLine
 10
7.7623340888
 20
4.2122712736
 30
0.0
 11
7.6403340582
 21
4.2122712736
 31
0.0
  0
LINE
  5
2EE
330
1F
100
AcDbEntity
  8
0
  6
Continuous
 62
     7
370
    30
100
AcDbLine
 10
7.7623340888
 20
4.1567157553
 30
0.0
 11
7.6403340582
 21
4.1567157553
 31
0.0
  0
LINE
  5
2EF
330
1F
100
AcDbEntity
  8
0
  6
Continuous
 62
     7
370
    30
100
AcDbLine
 10
7.7623340888
 20
4.2678268651
 30
0.0
 11
7.6403340582
 21
4.2678268651
 31
0.0
  0
LINE
  5
2F0
330
1F
100
AcDbEntity
  8
0
  6
Continuous
 62
     7
370
    30
100
AcDbLine
 10
7.6403340582
 20
4.0757567639
 30
0.0
 11
7.7623340888
 21
4.0757567639
 31
0.0
  0
LINE
  5
2F1
330
1F
100
AcDbEntity
  8
0
  6
Continuous
 62
     7
370
    30
100
AcDbLine
 10
7.7623340888
 20
4.4900490846
 30
0.0
 11
7.6403340582
 21
4.4900490846
 31
0.0
  0
LINE
  5
2F2
330
1F
100
AcDbEntity
  8
0
  6
Continuous
 62
     7
370
    30
100
AcDbLine
 10
7.7623340888
 20
4.0456046456
 30
0.0
 11
7.6403340582
 21
4.0456046456
 31
0.0
  0
LINE
  5
2F3
330
1F
100
AcDbEntity
  8
0
  6
Continuous
 62
     7
370
    30
100
AcDbLine
 10
7.7843339813
 20
4.3106807201
 30
0.0
 11
7.618334019
 21
4.3106807201
 31
0.0
  0
LINE
  5
2F4
330
1F
100
AcDbEntity
  8
0
  6
Continuous
 62
     7
370
    30
100
AcDbLine
 10
7.6403340582
 20
4.2979790201
 30
0.0
 11
7.7623340888
 21
4.2979790201
 31
0.0
  0
LINE
  5
2F5
330
1F
100
AcDbEntity
  8
0
  6
Continuous
 62
     7
370
    30
100
AcDbLine
 10
7.7623340888
 20
4.4344935298
 30
0.0
 11
7.6403340582
 21
4.4344935298
 31
0.0
  0
LINE
  5
2F6
330
1F
100
AcDbEntity
  8
0
  6
Continuous
 62
     7
370
    30
100
AcDbLine
 10
7.7623340888
 20
4.32338242
 30
0.0
 11
7.6403340582
 21
4.32338242
 31
0.0
  0
LINE
  5
2F7
330
1F
100
AcDbEntity
  8
0
  6
Continuous
 62
     7
370
    30
100
AcDbLine
 10
7.7013340735
 20
5.0426250062
 30
0.0
 11
7.6403340582
 21
5.0426250062
 31
0.0
  0
LINE
  5
2F8
330
1F
100
AcDbEntity
  8
0
  6
Continuous
 62
     7
370
    30
100
AcDbLine
 10
7.7623340888
 20
5.0426250062
 30
0.0
 11
7.7013340735
 21
5.0426250062
 31
0.0
  0
LINE
  5
2F9
330
1F
100
AcDbEntity
  8
0
  6
Continuous
 62
     7
370
    30
100
AcDbLine
 10
3.1436857372
 20
3.8022235105
 30
0.0
 11
3.0069822497
 21
3.8022235105
 31
0.0
  0
LINE
  5
2FA
330
1F
100
AcDbEntity
  8
0
  6
Continuous
 62
     7
370
    30
100
AcDbLine
 10
3.1363340088
 20
4.32338242
 30
0.0
 11
3.0143339781
 21
4.32338242
 31
0.0
  0
LINE
  5
2FB
330
1F
100
AcDbEntity
  8
0
  6
Continuous
 62
     7
370
    30
100
AcDbLine
 10
3.158334048
 20
4.3106807201
 30
0.0
 11
2.9923340856
 21
4.3106807201
 31
0.0
  0
LINE
  5
2FC
330
1F
100
AcDbEntity
  8
0
  6
Continuous
 62
     7
370
    30
100
AcDbLine
 10
3.1363340088
 20
4.3789379749
 30
0.0
 11
3.0143339781
 21
4.3789379749
 31
0.0
  0
LINE
  5
2FD
330
1F
100
AcDbEntity
  8
0
  6
Continuous
 62
     7
370
    30
100
AcDbLine
 10
3.158334048
 20
4.3662362749
 30
0.0
 11
2.9923340856
 21
4.3662362749
 31
0.0
  0
LINE
  5
2FE
330
1F
100
AcDbEntity
  8
0
  6
Continuous
 62
     7
370
    30
100
AcDbLine
 10
3.1363340088
 20
4.2122712736
 30
0.0
 11
3.0143339781
 21
4.2122712736
 31
0.0
  0
LINE
  5
2FF
330
1F
100
AcDbEntity
  8
0
  6
Continuous
 62
     7
370
    30
100
AcDbLine
 10
3.158334048
 20
4.1995695736
 30
0.0
 11
2.9923340856
 21
4.1995695736
 31
0.0
  0
LINE
  5
300
330
1F
100
AcDbEntity
  8
0
  6
Continuous
 62
     7
370
    30
100
AcDbLine
 10
3.0143339781
 20
4.2979790201
 30
0.0
 11
3.1363340088
 21
4.2979790201
 31
0.0
  0
LINE
  5
301
330
1F
100
AcDbEntity
  8
0
  6
Continuous
 62
     7
370
    30
100
AcDbLine
 10
3.1363340088
 20
4.2678268651
 30
0.0
 11
3.0143339781
 21
4.2678268651
 31
0.0
  0
LINE
  5
302
330
1F
100
AcDbEntity
  8
0
  6
Continuous
 62
     7
370
    30
100
AcDbLine
 10
3.158334048
 20
4.2551251652
 30
0.0
 11
2.9923340856
 21
4.2551251652
 31
0.0
  0
LINE
  5
303
330
1F
100
AcDbEntity
  8
0
  6
Continuous
 62
     7
370
    30
100
AcDbLine
 10
3.1363340088
 20
4.6011601944
 30
0.0
 11
3.0143339781
 21
4.6011601944
 31
0.0
  0
LINE
  5
304
330
1F
100
AcDbEntity
  8
0
  6
Continuous
 62
     7
370
    30
100
AcDbLine
 10
3.158334048
 20
4.5884584945
 30
0.0
 11
2.9923340856
 21
4.5884584945
 31
0.0
  0
LINE
  5
305
330
1F
100
AcDbEntity
  8
0
  6
Continuous
 62
     7
370
    30
100
AcDbLine
 10
3.0143339781
 20
4.5757567762
 30
0.0
 11
3.1363340088
 21
4.5757567762
 31
0.0
  0
LINE
  5
306
330
1F
100
AcDbEntity
  8
0
  6
Continuous
 62
     7
370
    30
100
AcDbLine
 10
3.158334048
 20
4.6440140494
 30
0.0
 11
2.9923340856
 21
4.6440140494
 31
0.0
  0
LINE
  5
307
330
1F
100
AcDbEntity
  8
0
  6
Continuous
 62
     7
370
    30
100
AcDbLine
 10
3.0143339781
 20
4.6313123311
 30
0.0
 11
3.1363340088
 21
4.6313123311
 31
0.0
  0
LINE
  5
308
330
1F
100
AcDbEntity
  8
0
  6
Continuous
 62
     7
370
    30
100
AcDbLine
 10
3.1363340088
 20
4.4900490846
 30
0.0
 11
3.0143339781
 21
4.4900490846
 31
0.0
  0
LINE
  5
309
330
1F
100
AcDbEntity
  8
0
  6
Continuous
 62
     7
370
    30
100
AcDbLine
 10
3.158334048
 20
4.4773473847
 30
0.0
 11
2.9923340856
 21
4.4773473847
 31
0.0
  0
LINE
  5
30A
330
1F
100
AcDbEntity
  8
0
  6
Continuous
 62
     7
370
    30
100
AcDbLine
 10
3.0143339781
 20
4.353534575
 30
0.0
 11
3.1363340088
 21
4.353534575
 31
0.0
  0
LINE
  5
30B
330
1F
100
AcDbEntity
  8
0
  6
Continuous
 62
     7
370
    30
100
AcDbLine
 10
3.1363340088
 20
4.4344935298
 30
0.0
 11
3.0143339781
 21
4.4344935298
 31
0.0
  0
LINE
  5
30C
330
1F
100
AcDbEntity
  8
0
  6
Continuous
 62
     7
370
    30
100
AcDbLine
 10
3.158334048
 20
4.4217918298
 30
0.0
 11
2.9923340856
 21
4.4217918298
 31
0.0
  0
LINE
  5
30D
330
1F
100
AcDbEntity
  8
0
  6
Continuous
 62
     7
370
    30
100
AcDbLine
 10
3.0143339781
 20
4.2424234652
 30
0.0
 11
3.1363340088
 21
4.2424234652
 31
0.0
  0
LINE
  5
30E
330
1F
100
AcDbEntity
  8
0
  6
Continuous
 62
     7
370
    30
100
AcDbLine
 10
3.1363340088
 20
4.5456046395
 30
0.0
 11
3.0143339781
 21
4.5456046395
 31
0.0
  0
LINE
  5
30F
330
1F
100
AcDbEntity
  8
0
  6
Continuous
 62
     7
370
    30
100
AcDbLine
 10
3.158334048
 20
4.5329029396
 30
0.0
 11
2.9923340856
 21
4.5329029396
 31
0.0
  0
LINE
  5
310
330
1F
100
AcDbEntity
  8
0
  6
Continuous
 62
     7
370
    30
100
AcDbLine
 10
3.1363340088
 20
4.1567157553
 30
0.0
 11
3.0143339781
 21
4.1567157553
 31
0.0
  0
LINE
  5
311
330
1F
100
AcDbEntity
  8
0
  6
Continuous
 62
     7
370
    30
100
AcDbLine
 10
3.158334048
 20
4.1440140554
 30
0.0
 11
2.9923340856
 21
4.1440140554
 31
0.0
  0
LINE
  5
312
330
1F
100
AcDbEntity
  8
0
  6
Continuous
 62
     7
370
    30
100
AcDbLine
 10
3.0143339781
 20
4.4646456848
 30
0.0
 11
3.1363340088
 21
4.4646456848
 31
0.0
  0
LINE
  5
313
330
1F
100
AcDbEntity
  8
0
  6
Continuous
 62
     7
370
    30
100
AcDbLine
 10
3.0143339781
 20
4.1868678737
 30
0.0
 11
3.1363340088
 21
4.1868678737
 31
0.0
  0
LINE
  5
314
330
1F
100
AcDbEntity
  8
0
  6
Continuous
 62
     7
370
    30
100
AcDbLine
 10
3.1363340088
 20
4.0456046456
 30
0.0
 11
3.0143339781
 21
4.0456046456
 31
0.0
  0
LINE
  5
315
330
1F
100
AcDbEntity
  8
0
  6
Continuous
 62
     7
370
    30
100
AcDbLine
 10
3.158334048
 20
4.0329029456
 30
0.0
 11
2.9923340856
 21
4.0329029456
 31
0.0
  0
LINE
  5
316
330
1F
100
AcDbEntity
  8
0
  6
Continuous
 62
     7
370
    30
100
AcDbLine
 10
3.158334048
 20
3.8662362443
 30
0.0
 11
2.9923340856
 21
3.8662362443
 31
0.0
  0
LINE
  5
317
330
1F
100
AcDbEntity
  8
0
  6
Continuous
 62
     7
370
    30
100
AcDbLine
 10
3.0143339781
 20
3.8535345444
 30
0.0
 11
3.1363340088
 21
3.8535345444
 31
0.0
  0
LINE
  5
318
330
1F
100
AcDbEntity
  8
0
  6
Continuous
 62
     7
370
    30
100
AcDbLine
 10
3.0143339781
 20
4.4090901299
 30
0.0
 11
3.1363340088
 21
4.4090901299
 31
0.0
  0
LINE
  5
319
330
1F
100
AcDbEntity
  8
0
  6
Continuous
 62
     7
370
    30
100
AcDbLine
 10
3.158334048
 20
3.8106807261
 30
0.0
 11
2.9923340856
 21
3.8106807261
 31
0.0
  0
LINE
  5
31A
330
1F
100
AcDbEntity
  8
0
  6
Continuous
 62
     7
370
    30
100
AcDbLine
 10
3.1363340088
 20
4.7678268591
 30
0.0
 11
3.0143339781
 21
4.7678268591
 31
0.0
  0
LINE
  5
31B
330
1F
100
AcDbEntity
  8
0
  6
Continuous
 62
     7
370
    30
100
AcDbLine
 10
3.158334048
 20
4.7551251591
 30
0.0
 11
2.9923340856
 21
4.7551251591
 31
0.0
  0
LINE
  5
31C
330
1F
100
AcDbEntity
  8
0
  6
Continuous
 62
     7
370
    30
100
AcDbLine
 10
3.0143339781
 20
4.74242345
 30
0.0
 11
3.1363340088
 21
4.74242345
 31
0.0
  0
LINE
  5
31D
330
1F
100
AcDbEntity
  8
0
  6
Continuous
 62
     7
370
    30
100
AcDbLine
 10
3.158334048
 20
4.6995696042
 30
0.0
 11
2.9923340856
 21
4.6995696042
 31
0.0
  0
LINE
  5
31E
330
1F
100
AcDbEntity
  8
0
  6
Continuous
 62
     7
370
    30
100
AcDbLine
 10
3.0143339781
 20
4.686867886
 30
0.0
 11
3.1363340088
 21
4.686867886
 31
0.0
  0
LINE
  5
31F
330
1F
100
AcDbEntity
  8
0
  6
Continuous
 62
     7
370
    30
100
AcDbLine
 10
3.1363340088
 20
3.8789379443
 30
0.0
 11
3.0143339781
 21
3.8789379443
 31
0.0
  0
LINE
  5
320
330
1F
100
AcDbEntity
  8
0
  6
Continuous
 62
     7
370
    30
100
AcDbLine
 10
3.1363340088
 20
4.8789379734
 30
0.0
 11
3.0143339781
 21
4.8789379734
 31
0.0
  0
LINE
  5
321
330
1F
100
AcDbEntity
  8
0
  6
Continuous
 62
     7
370
    30
100
AcDbLine
 10
3.158334048
 20
4.8662362678
 30
0.0
 11
2.9923340856
 21
4.8662362678
 31
0.0
  0
LINE
  5
322
330
1F
100
AcDbEntity
  8
0
  6
Continuous
 62
     7
370
    30
100
AcDbLine
 10
3.1363340088
 20
3.823382426
 30
0.0
 11
3.0143339781
 21
3.823382426
 31
0.0
  0
LINE
  5
323
330
1F
100
AcDbEntity
  8
0
  6
Continuous
 62
     7
370
    30
100
AcDbLine
 10
3.0143339781
 20
4.5202012397
 30
0.0
 11
3.1363340088
 21
4.5202012397
 31
0.0
  0
LINE
  5
324
330
1F
100
AcDbEntity
  8
0
  6
Continuous
 62
     7
370
    30
100
AcDbLine
 10
3.158334048
 20
4.0884584639
 30
0.0
 11
2.9923340856
 21
4.0884584639
 31
0.0
  0
LINE
  5
325
330
1F
100
AcDbEntity
  8
0
  6
Continuous
 62
     7
370
    30
100
AcDbLine
 10
3.0143339781
 20
4.0757567639
 30
0.0
 11
3.1363340088
 21
4.0757567639
 31
0.0
  0
LINE
  5
326
330
1F
100
AcDbEntity
  8
0
  6
Continuous
 62
     7
370
    30
100
AcDbLine
 10
3.1363340088
 20
3.9344935358
 30
0.0
 11
3.0143339781
 21
3.9344935358
 31
0.0
  0
LINE
  5
327
330
1F
100
AcDbEntity
  8
0
  6
Continuous
 62
     7
370
    30
100
AcDbLine
 10
3.158334048
 20
3.9217918359
 30
0.0
 11
2.9923340856
 21
3.9217918359
 31
0.0
  0
LINE
  5
328
330
1F
100
AcDbEntity
  8
0
  6
Continuous
 62
     7
370
    30
100
AcDbLine
 10
3.158334048
 20
3.9773473541
 30
0.0
 11
2.9923340856
 21
3.9773473541
 31
0.0
  0
LINE
  5
329
330
1F
100
AcDbEntity
  8
0
  6
Continuous
 62
     7
370
    30
100
AcDbLine
 10
3.0143339781
 20
3.9646456542
 30
0.0
 11
3.1363340088
 21
3.9646456542
 31
0.0
  0
LINE
  5
32A
330
1F
100
AcDbEntity
  8
0
  6
Continuous
 62
     7
370
    30
100
AcDbLine
 10
3.0143339781
 20
4.8535345621
 30
0.0
 11
3.1363340088
 21
4.8535345621
 31
0.0
  0
LINE
  5
32B
330
1F
100
AcDbEntity
  8
0
  6
Continuous
 62
     7
370
    30
100
AcDbLine
 10
3.1363340088
 20
4.6567157493
 30
0.0
 11
3.0143339781
 21
4.6567157493
 31
0.0
  0
LINE
  5
32C
330
1F
100
AcDbEntity
  8
0
  6
Continuous
 62
     7
370
    30
100
AcDbLine
 10
3.0143339781
 20
3.9090901359
 30
0.0
 11
3.1363340088
 21
3.9090901359
 31
0.0
  0
LINE
  5
32D
330
1F
100
AcDbEntity
  8
0
  6
Continuous
 62
     7
370
    30
100
AcDbLine
 10
3.1363340088
 20
3.990049054
 30
0.0
 11
3.0143339781
 21
3.990049054
 31
0.0
  0
LINE
  5
32E
330
1F
100
AcDbEntity
  8
0
  6
Continuous
 62
     7
370
    30
100
AcDbLine
 10
3.0143339781
 20
4.1313123555
 30
0.0
 11
3.1363340088
 21
4.1313123555
 31
0.0
  0
LINE
  5
32F
330
1F
100
AcDbEntity
  8
0
  6
Continuous
 62
     7
370
    30
100
AcDbLine
 10
3.158334048
 20
4.810680714
 30
0.0
 11
2.9923340856
 21
4.810680714
 31
0.0
  0
LINE
  5
330
330
1F
100
AcDbEntity
  8
0
  6
Continuous
 62
     7
370
    30
100
AcDbLine
 10
3.0143339781
 20
4.7979790049
 30
0.0
 11
3.1363340088
 21
4.7979790049
 31
0.0
  0
LINE
  5
331
330
1F
100
AcDbEntity
  8
0
  6
Continuous
 62
     7
370
    30
100
AcDbLine
 10
3.0143339781
 20
4.0202012457
 30
0.0
 11
3.1363340088
 21
4.0202012457
 31
0.0
  0
LINE
  5
332
330
1F
100
AcDbEntity
  8
0
  6
Continuous
 62
     7
370
    30
100
AcDbLine
 10
3.1363340088
 20
4.1011601638
 30
0.0
 11
3.0143339781
 21
4.1011601638
 31
0.0
  0
LINE
  5
333
330
1F
100
AcDbEntity
  8
0
  6
Continuous
 62
     7
370
    30
100
AcDbLine
 10
3.1363340088
 20
4.7122713042
 30
0.0
 11
3.0143339781
 21
4.7122713042
 31
0.0
  0
LINE
  5
334
330
1F
100
AcDbEntity
  8
0
  6
Continuous
 62
     7
370
    30
100
AcDbLine
 10
3.1363340088
 20
4.8233824185
 30
0.0
 11
3.0143339781
 21
4.8233824185
 31
0.0
  0
LINE
  5
335
330
1F
100
AcDbEntity
  8
0
  6
Continuous
 62
     7
370
    30
100
AcDbLine
 10
3.0753339934
 20
5.0426250062
 30
0.0
 11
3.0143339781
 21
5.0426250062
 31
0.0
  0
LINE
  5
336
330
1F
100
AcDbEntity
  8
0
  6
Continuous
 62
     7
370
    30
100
AcDbLine
 10
3.1363340088
 20
5.0426250062
 30
0.0
 11
3.0753339934
 21
5.0426250062
 31
0.0
  0
LINE
  5
337
330
1F
100
AcDbEntity
  8
0
  6
Continuous
 62
     7
370
    30
100
AcDbLine
 10
4.3883340456
 20
3.6898920015
 30
0.0
 11
4.3883340456
 21
3.7398919972
 31
0.0
  0
LINE
  5
338
330
1F
100
AcDbEntity
  8
0
  6
Continuous
 62
     7
370
    30
100
AcDbLine
 10
4.7383340157
 20
5.5018920491
 30
0.0
 11
4.7883340481
 21
5.5018920491
 31
0.0
  0
LINE
  5
339
330
1F
100
AcDbEntity
  8
0
  6
Continuous
 62
     7
370
    30
100
AcDbLine
 10
4.7883340481
 20
3.8741419997
 30
0.0
 11
4.7883340481
 21
4.7624041967
 31
0.0
  0
LINE
  5
33A
330
1F
100
AcDbEntity
  8
0
  6
Continuous
 62
     7
370
    30
100
AcDbLine
 10
4.7633340135
 20
3.8741419997
 30
0.0
 11
4.7883340481
 21
3.8741419997
 31
0.0
  0
ARC
  5
33B
330
1F
100
AcDbEntity
  8
0
  6
Continuous
 62
     7
370
    30
100
AcDbCircle
 10
4.8454025833
 20
3.7958443092
 30
0.0
 40
0.0250000000000003
100
AcDbArc
 50
346.9332707857
 51
166.9332707857
  0
ARC
  5
33C
330
1F
100
AcDbEntity
  8
0
  6
Continuous
 62
     7
370
    30
100
AcDbCircle
 10
4.7633340335
 20
3.8148920291
 30
0.0
 40
0.1092499999999998
100
AcDbArc
 50
338.13385487
 51
346.9332707857
  0
ARC
  5
33D
330
1F
100
AcDbEntity
  8
0
  6
Continuous
 62
     7
370
    30
100
AcDbCircle
 10
4.8879256163
 20
3.7648920291
 30
0.0
 40
0.0249999999999999
100
AcDbArc
 50
158.13385487
 51
270.0
  0
LINE
  5
33E
330
1F
100
AcDbEntity
  8
0
  6
Continuous
 62
     7
370
    30
100
AcDbLine
 10
5.1383340365
 20
3.7398919972
 30
0.0
 11
4.8879256142
 21
3.7398919972
 31
0.0
  0
LINE
  5
33F
330
1F
100
AcDbEntity
  8
0
  6
Continuous
 62
     7
370
    30
100
AcDbLine
 10
5.1383340365
 20
3.6898920015
 30
0.0
 11
5.1383340365
 21
3.7398919972
 31
0.0
  0
LINE
  5
340
330
1F
100
AcDbEntity
  8
0
  6
Continuous
 62
     7
370
    30
100
AcDbLine
 10
4.3883340456
 20
3.6898920015
 30
0.0
 11
5.1383340365
 21
3.6898920015
 31
0.0
  0
LINE
  5
341
330
1F
100
AcDbEntity
  8
0
  6
Continuous
 62
     7
370
    30
100
AcDbLine
 10
4.6387424861
 20
3.7398919972
 30
0.0
 11
4.3883340456
 21
3.7398919972
 31
0.0
  0
ARC
  5
342
330
1F
100
AcDbEntity
  8
0
  6
Continuous
 62
     7
370
    30
100
AcDbCircle
 10
4.6387424507
 20
3.7648920291
 30
0.0
 40
0.0249999999999999
100
AcDbArc
 50
270.0
 51
21.86614513
  0
ARC
  5
343
330
1F
100
AcDbEntity
  8
0
  6
Continuous
 62
     7
370
    30
100
AcDbCircle
 10
4.7633340335
 20
3.8148920291
 30
0.0
 40
0.1092500000000006
100
AcDbArc
 50
103.2283724921
 51
201.86614513
  0
LINE
  5
344
330
1F
100
AcDbEntity
  8
0
  6
Continuous
 62
     7
370
    30
100
AcDbLine
 10
4.7383340157
 20
4.7624041967
 30
0.0
 11
4.7383340157
 21
3.9212431622
 31
0.0
  0
ARC
  5
345
330
1F
100
AcDbEntity
  8
0
  6
Continuous
 62
     7
370
    30
100
AcDbCircle
 10
4.6633340335
 20
4.7624041946
 30
0.0
 40
0.0750000000000002
100
AcDbArc
 50
0.0
 51
83.3002348222
  0
ARC
  5
346
330
1F
100
AcDbEntity
  8
0
  6
Continuous
 62
     7
370
    30
100
AcDbCircle
 10
4.6773340335
 20
4.8815847299
 30
0.0
 40
0.0450000000000008
100
AcDbArc
 50
180.0
 51
263.3002348222
  0
LINE
  5
347
330
1F
100
AcDbEntity
  8
0
  6
Continuous
 62
     7
370
    30
100
AcDbLine
 10
4.6323340335
 20
4.9568920333
 30
0.0
 11
4.6323340335
 21
4.8815847299
 31
0.0
  0
ARC
  5
348
330
1F
100
AcDbEntity
  8
0
  6
Continuous
 62
     7
370
    30
100
AcDbCircle
 10
4.6423340335
 20
4.9568920291
 30
0.0
 40
0.0100000000000007
100
AcDbArc
 50
90.0
 51
180.0
  0
LINE
  5
349
330
1F
100
AcDbEntity
  8
0
  6
Continuous
 62
     7
370
    30
100
AcDbLine
 10
4.6487700436
 20
4.966892027
 30
0.0
 11
4.642334018
 21
4.966892027
 31
0.0
  0
LINE
  5
34A
330
1F
100
AcDbEntity
  8
0
  6
Continuous
 62
     7
370
    30
100
AcDbLine
 10
4.6823340292
 20
4.9268920295
 30
0.0
 11
4.6487700436
 21
4.966892027
 31
0.0
  0
LINE
  5
34B
330
1F
100
AcDbEntity
  8
0
  6
Continuous
 62
     7
370
    30
100
AcDbLine
 10
4.6735177044
 20
4.8768920291
 30
0.0
 11
4.6823340292
 21
4.9268920295
 31
0.0
  0
LINE
  5
34C
330
1F
100
AcDbEntity
  8
0
  6
Continuous
 62
     7
370
    30
100
AcDbLine
 10
4.7383340157
 20
4.8768920291
 30
0.0
 11
4.6735177044
 21
4.8768920291
 31
0.0
  0
LINE
  5
34D
330
1F
100
AcDbEntity
  8
0
  6
Continuous
 62
     7
370
    30
100
AcDbLine
 10
4.7383340157
 20
5.5018920491
 30
0.0
 11
4.7383340157
 21
4.8768920291
 31
0.0
  0
LINE
  5
34E
330
1F
100
AcDbEntity
  8
0
  6
Continuous
 62
     7
370
    30
100
AcDbLine
 10
4.7883340481
 20
4.8768920291
 30
0.0
 11
4.7883340481
 21
5.5018920491
 31
0.0
  0
LINE
  5
34F
330
1F
100
AcDbEntity
  8
0
  6
Continuous
 62
     7
370
    30
100
AcDbLine
 10
4.853150396
 20
4.8768920291
 30
0.0
 11
4.7883340481
 21
4.8768920291
 31
0.0
  0
LINE
  5
350
330
1F
100
AcDbEntity
  8
0
  6
Continuous
 62
     7
370
    30
100
AcDbLine
 10
4.8443340345
 20
4.9268920295
 30
0.0
 11
4.853150396
 21
4.8768920291
 31
0.0
  0
LINE
  5
351
330
1F
100
AcDbEntity
  8
0
  6
Continuous
 62
     7
370
    30
100
AcDbLine
 10
4.8778980201
 20
4.966892027
 30
0.0
 11
4.8443340345
 21
4.9268920295
 31
0.0
  0
LINE
  5
352
330
1F
100
AcDbEntity
  8
0
  6
Continuous
 62
     7
370
    30
100
AcDbLine
 10
4.8843340457
 20
4.966892027
 30
0.0
 11
4.8778980201
 21
4.966892027
 31
0.0
  0
ARC
  5
353
330
1F
100
AcDbEntity
  8
0
  6
Continuous
 62
     7
370
    30
100
AcDbCircle
 10
4.8843340335
 20
4.9568920291
 30
0.0
 40
0.0099999999999989
100
AcDbArc
 50
0.0
 51
90.0
  0
LINE
  5
354
330
1F
100
AcDbEntity
  8
0
  6
Continuous
 62
     7
370
    30
100
AcDbLine
 10
4.8943340302
 20
4.8815847299
 30
0.0
 11
4.8943340302
 21
4.9568920333
 31
0.0
  0
ARC
  5
355
330
1F
100
AcDbEntity
  8
0
  6
Continuous
 62
     7
370
    30
100
AcDbCircle
 10
4.8493340335
 20
4.8815847299
 30
0.0
 40
0.0450000000000004
100
AcDbArc
 50
276.6997651778
 51
0.0
  0
ARC
  5
356
330
1F
100
AcDbEntity
  8
0
  6
Continuous
 62
     7
370
    30
100
AcDbCircle
 10
4.8633340335
 20
4.7624041946
 30
0.0
 40
0.0749999999999993
100
AcDbArc
 50
96.6997651778
 51
180.0
  0
ARC
  5
357
330
1F
100
AcDbEntity
  8
0
  6
Continuous
 62
     7
370
    30
100
AcDbCircle
 10
4.7633340335
 20
3.8148920291
 30
0.0
 40
0.0592499999999996
100
AcDbArc
 50
90.0
 51
346.9332707857
  0
LINE
  5
358
330
1F
100
AcDbEntity
  8
0
  6
Continuous
 62
     7
370
    30
100
AcDbLine
 10
5.6383340304
 20
3.6898920015
 30
0.0
 11
5.6383340304
 21
3.7398919972
 31
0.0
  0
LINE
  5
359
330
1F
100
AcDbEntity
  8
0
  6
Continuous
 62
     7
370
    30
100
AcDbLine
 10
5.8887424527
 20
3.7398919972
 30
0.0
 11
5.6383340304
 21
3.7398919972
 31
0.0
  0
ARC
  5
35A
330
1F
100
AcDbEntity
  8
0
  6
Continuous
 62
     7
370
    30
100
AcDbCircle
 10
5.8887424507
 20
3.7648920291
 30
0.0
 40
0.0250000000000005
100
AcDbArc
 50
270.0
 51
21.86614513
  0
ARC
  5
35B
330
1F
100
AcDbEntity
  8
0
  6
Continuous
 62
     7
370
    30
100
AcDbCircle
 10
6.0133340335
 20
3.8148920291
 30
0.0
 40
0.1092500000000001
100
AcDbArc
 50
103.2283724921
 51
201.86614513
  0
LINE
  5
35C
330
1F
100
AcDbEntity
  8
0
  6
Continuous
 62
     7
370
    30
100
AcDbLine
 10
5.9883340189
 20
4.7624041967
 30
0.0
 11
5.9883340189
 21
3.9212431622
 31
0.0
  0
ARC
  5
35D
330
1F
100
AcDbEntity
  8
0
  6
Continuous
 62
     7
370
    30
100
AcDbCircle
 10
5.9133340335
 20
4.7624041946
 30
0.0
 40
0.0750000000000002
100
AcDbArc
 50
0.0
 51
83.3002348222
  0
ARC
  5
35E
330
1F
100
AcDbEntity
  8
0
  6
Continuous
 62
     7
370
    30
100
AcDbCircle
 10
5.9273340335
 20
4.8815847299
 30
0.0
 40
0.0450000000000004
100
AcDbArc
 50
180.0
 51
263.3002348222
  0
LINE
  5
35F
330
1F
100
AcDbEntity
  8
0
  6
Continuous
 62
     7
370
    30
100
AcDbLine
 10
5.8823340367
 20
4.9568920333
 30
0.0
 11
5.8823340367
 21
4.8815847299
 31
0.0
  0
ARC
  5
360
330
1F
100
AcDbEntity
  8
0
  6
Continuous
 62
     7
370
    30
100
AcDbCircle
 10
5.8923340335
 20
4.9568920291
 30
0.0
 40
0.0099999999999998
100
AcDbArc
 50
90.0
 51
180.0
  0
LINE
  5
361
330
1F
100
AcDbEntity
  8
0
  6
Continuous
 62
     7
370
    30
100
AcDbLine
 10
5.9323340325
 20
4.9268920295
 30
0.0
 11
5.8987700469
 21
4.966892027
 31
0.0
  0
LINE
  5
362
330
1F
100
AcDbEntity
  8
0
  6
Continuous
 62
     7
370
    30
100
AcDbLine
 10
5.923517671
 20
4.8768920291
 30
0.0
 11
5.9323340325
 21
4.9268920295
 31
0.0
  0
LINE
  5
363
330
1F
100
AcDbEntity
  8
0
  6
Continuous
 62
     7
370
    30
100
AcDbLine
 10
5.9883340189
 20
5.5018920491
 30
0.0
 11
6.0383340513
 21
5.5018920491
 31
0.0
  0
LINE
  5
364
330
1F
100
AcDbEntity
  8
0
  6
Continuous
 62
     7
370
    30
100
AcDbLine
 10
6.3883340214
 20
3.6898920015
 30
0.0
 11
6.3883340214
 21
3.7398919972
 31
0.0
  0
LINE
  5
365
330
1F
100
AcDbEntity
  8
0
  6
Continuous
 62
     7
370
    30
100
AcDbLine
 10
5.6383340304
 20
3.6898920015
 30
0.0
 11
6.3883340214
 21
3.6898920015
 31
0.0
  0
LINE
  5
366
330
1F
100
AcDbEntity
  8
0
  6
Continuous
 62
     7
370
    30
100
AcDbLine
 10
5.9883340189
 20
5.5018920491
 30
0.0
 11
5.9883340189
 21
4.8768920291
 31
0.0
  0
LINE
  5
367
330
1F
100
AcDbEntity
  8
0
  6
Continuous
 62
     7
370
    30
100
AcDbLine
 10
6.0383340513
 20
4.8768920291
 30
0.0
 11
6.0383340513
 21
5.5018920491
 31
0.0
  0
LINE
  5
368
330
1F
100
AcDbEntity
  8
0
  6
Continuous
 62
     7
370
    30
100
AcDbLine
 10
6.1031503625
 20
4.8768920291
 30
0.0
 11
6.0383340513
 21
4.8768920291
 31
0.0
  0
LINE
  5
369
330
1F
100
AcDbEntity
  8
0
  6
Continuous
 62
     7
370
    30
100
AcDbLine
 10
6.0943340377
 20
4.9268920295
 30
0.0
 11
6.1031503625
 21
4.8768920291
 31
0.0
  0
LINE
  5
36A
330
1F
100
AcDbEntity
  8
0
  6
Continuous
 62
     7
370
    30
100
AcDbLine
 10
6.1278980233
 20
4.966892027
 30
0.0
 11
6.0943340377
 21
4.9268920295
 31
0.0
  0
LINE
  5
36B
330
1F
100
AcDbEntity
  8
0
  6
Continuous
 62
     7
370
    30
100
AcDbLine
 10
6.1343340489
 20
4.966892027
 30
0.0
 11
6.1278980233
 21
4.966892027
 31
0.0
  0
ARC
  5
36C
330
1F
100
AcDbEntity
  8
0
  6
Continuous
 62
     7
370
    30
100
AcDbCircle
 10
6.1343340335
 20
4.9568920291
 30
0.0
 40
0.0100000000000007
100
AcDbArc
 50
0.0
 51
90.0
  0
LINE
  5
36D
330
1F
100
AcDbEntity
  8
0
  6
Continuous
 62
     7
370
    30
100
AcDbLine
 10
6.1443340334
 20
4.8815847299
 30
0.0
 11
6.1443340334
 21
4.9568920333
 31
0.0
  0
ARC
  5
36E
330
1F
100
AcDbEntity
  8
0
  6
Continuous
 62
     7
370
    30
100
AcDbCircle
 10
6.0993340335
 20
4.8815847299
 30
0.0
 40
0.0450000000000008
100
AcDbArc
 50
276.6997651778
 51
0.0
  0
ARC
  5
36F
330
1F
100
AcDbEntity
  8
0
  6
Continuous
 62
     7
370
    30
100
AcDbCircle
 10
6.1133340335
 20
4.7624041946
 30
0.0
 40
0.0750000000000011
100
AcDbArc
 50
96.6997651778
 51
180.0
  0
LINE
  5
370
330
1F
100
AcDbEntity
  8
0
  6
Continuous
 62
     7
370
    30
100
AcDbLine
 10
5.9883340189
 20
4.8768920291
 30
0.0
 11
5.923517671
 21
4.8768920291
 31
0.0
  0
LINE
  5
371
330
1F
100
AcDbEntity
  8
0
  6
Continuous
 62
     7
370
    30
100
AcDbLine
 10
6.0133340534
 20
3.8741419997
 30
0.0
 11
6.0383340513
 21
3.8741419997
 31
0.0
  0
ARC
  5
372
330
1F
100
AcDbEntity
  8
0
  6
Continuous
 62
     7
370
    30
100
AcDbCircle
 10
6.0133340335
 20
3.8148920291
 30
0.0
 40
0.0592500000000001
100
AcDbArc
 50
90.0
 51
346.9332707857
  0
ARC
  5
373
330
1F
100
AcDbEntity
  8
0
  6
Continuous
 62
     7
370
    30
100
AcDbCircle
 10
6.0954025833
 20
3.7958443092
 30
0.0
 40
0.0249999999999995
100
AcDbArc
 50
346.9332707857
 51
166.9332707857
  0
ARC
  5
374
330
1F
100
AcDbEntity
  8
0
  6
Continuous
 62
     7
370
    30
100
AcDbCircle
 10
6.0133340335
 20
3.8148920291
 30
0.0
 40
0.1092499999999998
100
AcDbArc
 50
338.13385487
 51
346.9332707857
  0
ARC
  5
375
330
1F
100
AcDbEntity
  8
0
  6
Continuous
 62
     7
370
    30
100
AcDbCircle
 10
6.1379256163
 20
3.7648920291
 30
0.0
 40
0.0249999999999999
100
AcDbArc
 50
158.13385487
 51
270.0
  0
LINE
  5
376
330
1F
100
AcDbEntity
  8
0
  6
Continuous
 62
     7
370
    30
100
AcDbLine
 10
6.3883340214
 20
3.7398919972
 30
0.0
 11
6.1379255808
 21
3.7398919972
 31
0.0
  0
LINE
  5
377
330
1F
100
AcDbEntity
  8
0
  6
Continuous
 62
     7
370
    30
100
AcDbLine
 10
5.8987700469
 20
4.966892027
 30
0.0
 11
5.8923340212
 21
4.966892027
 31
0.0
  0
LINE
  5
378
330
1F
100
AcDbEntity
  8
0
  6
Continuous
 62
     7
370
    30
100
AcDbLine
 10
6.0383340513
 20
3.8741419997
 30
0.0
 11
6.0383340513
 21
4.7624041967
 31
0.0
  0
LINE
  5
379
330
1F
100
AcDbEntity
  8
0
  6
Continuous
 62
     7
370
    30
100
AcDbLine
 10
6.888334052
 20
3.7398919972
 30
0.0
 11
6.888334052
 21
3.6898920015
 31
0.0
  0
LINE
  5
37A
330
1F
100
AcDbEntity
  8
0
  6
Continuous
 62
     7
370
    30
100
AcDbLine
 10
6.888334052
 20
3.7398919972
 30
0.0
 11
7.2383340221
 21
3.7398919972
 31
0.0
  0
LINE
  5
37B
330
1F
100
AcDbEntity
  8
0
  6
Continuous
 62
     7
370
    30
100
AcDbLine
 10
7.2383340221
 20
3.7398919972
 30
0.0
 11
7.2383340221
 21
3.9182738565
 31
0.0
  0
ARC
  5
37C
330
1F
100
AcDbEntity
  8
0
  6
Continuous
 62
     7
370
    30
100
AcDbCircle
 10
7.3113340335
 20
4.0018920291
 30
0.0
 40
0.1110000000000002
100
AcDbArc
 50
131.1214761682
 51
228.8785238318
  0
LINE
  5
37D
330
1F
100
AcDbEntity
  8
0
  6
Continuous
 62
     7
370
    30
100
AcDbLine
 10
7.2383340221
 20
4.0855102046
 30
0.0
 11
7.2383340221
 21
4.7624041967
 31
0.0
  0
ARC
  5
37E
330
1F
100
AcDbEntity
  8
0
  6
Continuous
 62
     7
370
    30
100
AcDbCircle
 10
7.1633340335
 20
4.7624041946
 30
0.0
 40
0.0750000000000002
100
AcDbArc
 50
0.0
 51
83.3002348222
  0
ARC
  5
37F
330
1F
100
AcDbEntity
  8
0
  6
Continuous
 62
     7
370
    30
100
AcDbCircle
 10
7.1773340335
 20
4.8815847299
 30
0.0
 40
0.0449999999999995
100
AcDbArc
 50
180.0
 51
263.3002348222
  0
LINE
  5
380
330
1F
100
AcDbEntity
  8
0
  6
Continuous
 62
     7
370
    30
100
AcDbLine
 10
7.1323339666
 20
4.8815847299
 30
0.0
 11
7.1323339666
 21
4.9568920333
 31
0.0
  0
ARC
  5
381
330
1F
100
AcDbEntity
  8
0
  6
Continuous
 62
     7
370
    30
100
AcDbCircle
 10
7.1423340335
 20
4.9568920291
 30
0.0
 40
0.0100000000000007
100
AcDbArc
 50
90.0
 51
180.0
  0
LINE
  5
382
330
1F
100
AcDbEntity
  8
0
  6
Continuous
 62
     7
370
    30
100
AcDbLine
 10
7.1423340244
 20
4.966892027
 30
0.0
 11
7.1487699768
 21
4.966892027
 31
0.0
  0
LINE
  5
383
330
1F
100
AcDbEntity
  8
0
  6
Continuous
 62
     7
370
    30
100
AcDbLine
 10
7.1487699768
 20
4.966892027
 30
0.0
 11
7.1823339624
 21
4.9268920295
 31
0.0
  0
LINE
  5
384
330
1F
100
AcDbEntity
  8
0
  6
Continuous
 62
     7
370
    30
100
AcDbLine
 10
7.1823339624
 20
4.9268920295
 30
0.0
 11
7.1735176375
 21
4.8768920291
 31
0.0
  0
LINE
  5
385
330
1F
100
AcDbEntity
  8
0
  6
Continuous
 62
     7
370
    30
100
AcDbLine
 10
7.1735176375
 20
4.8768920291
 30
0.0
 11
7.2383340221
 21
4.8768920291
 31
0.0
  0
LINE
  5
386
330
1F
100
AcDbEntity
  8
0
  6
Continuous
 62
     7
370
    30
100
AcDbLine
 10
7.2383340221
 20
4.8768920291
 30
0.0
 11
7.2383340221
 21
5.5018920491
 31
0.0
  0
LINE
  5
387
330
1F
100
AcDbEntity
  8
0
  6
Continuous
 62
     7
370
    30
100
AcDbLine
 10
7.2383340221
 20
5.5018920491
 30
0.0
 11
7.2883340178
 21
5.5018920491
 31
0.0
  0
LINE
  5
388
330
1F
100
AcDbEntity
  8
0
  6
Continuous
 62
     7
370
    30
100
AcDbLine
 10
7.2883340178
 20
5.5018920491
 30
0.0
 11
7.2883340178
 21
4.0583897979
 31
0.0
  0
ARC
  5
389
330
1F
100
AcDbEntity
  8
0
  6
Continuous
 62
     7
370
    30
100
AcDbCircle
 10
7.3113340335
 20
4.0018920291
 30
0.0
 40
0.061
100
AcDbArc
 50
112.1510214415
 51
31.5198585799
  0
ARC
  5
38A
330
1F
100
AcDbEntity
  8
0
  6
Continuous
 62
     7
370
    30
100
AcDbCircle
 10
7.3846455089
 20
4.046852318
 30
0.0
 40
0.025
100
AcDbArc
 50
31.5198585799
 51
211.5198585799
  0
ARC
  5
38B
330
1F
100
AcDbEntity
  8
0
  6
Continuous
 62
     7
370
    30
100
AcDbCircle
 10
7.3113340335
 20
4.0018920291
 30
0.0
 40
0.1109999999999999
100
AcDbArc
 50
258.0412625374
 51
31.5198585799
  0
LINE
  5
38C
330
1F
100
AcDbEntity
  8
0
  6
Continuous
 62
     7
370
    30
100
AcDbLine
 10
7.2883340178
 20
3.893301065
 30
0.0
 11
7.2883340178
 21
3.7398919972
 31
0.0
  0
LINE
  5
38D
330
1F
100
AcDbEntity
  8
0
  6
Continuous
 62
     7
370
    30
100
AcDbLine
 10
7.2883340178
 20
3.7398919972
 30
0.0
 11
7.9633338869
 21
3.7398919972
 31
0.0
  0
LINE
  5
38E
330
1F
100
AcDbEntity
  8
0
  6
Continuous
 62
     7
370
    30
100
AcDbLine
 10
7.9633338869
 20
3.7398919972
 30
0.0
 11
7.9633338869
 21
3.7828920405
 31
0.0
  0
LINE
  5
38F
330
1F
100
AcDbEntity
  8
0
  6
Continuous
 62
     7
370
    30
100
AcDbLine
 10
6.888334052
 20
3.6898920015
 30
0.0
 11
8.0133340292
 21
3.6898920015
 31
0.0
  0
LINE
  5
390
330
1F
100
AcDbEntity
  8
0
  6
Continuous
 62
     7
370
    30
100
AcDbLine
 10
8.0133340292
 20
3.7828920405
 30
0.0
 11
8.0133340292
 21
3.6898920015
 31
0.0
  0
LINE
  5
391
330
1F
100
AcDbEntity
  8
0
  6
Continuous
 62
     7
370
    30
100
AcDbLine
 10
7.9633338869
 20
3.7828920405
 30
0.0
 11
8.0133340292
 21
3.7828920405
 31
0.0
  0
LINE
  5
392
330
1F
100
AcDbEntity
  8
0
  6
Continuous
 62
     7
370
    30
100
AcDbLine
 10
7.5820772645
 20
3.7982655362
 30
0.0
 11
7.8205907358
 21
3.7982655362
 31
0.0
  0
LINE
  5
393
330
1F
100
AcDbEntity
  8
0
  6
Continuous
 62
     7
370
    30
100
AcDbLine
 10
2.8133341801
 20
3.7828920405
 30
0.0
 11
2.8133341801
 21
3.7398919972
 31
0.0
  0
LINE
  5
394
330
1F
100
AcDbEntity
  8
0
  6
Continuous
 62
     7
370
    30
100
AcDbLine
 10
2.8133341801
 20
3.7398919972
 30
0.0
 11
3.4883340491
 21
3.7398919972
 31
0.0
  0
LINE
  5
395
330
1F
100
AcDbEntity
  8
0
  6
Continuous
 62
     7
370
    30
100
AcDbLine
 10
3.4883340491
 20
3.7398919972
 30
0.0
 11
3.4883340491
 21
3.893301065
 31
0.0
  0
ARC
  5
396
330
1F
100
AcDbEntity
  8
0
  6
Continuous
 62
     7
370
    30
100
AcDbCircle
 10
3.4653340335
 20
4.0018920291
 30
0.0
 40
0.1109999999999999
100
AcDbArc
 50
148.4801414201
 51
281.9587374626
  0
ARC
  5
397
330
1F
100
AcDbEntity
  8
0
  6
Continuous
 62
     7
370
    30
100
AcDbCircle
 10
3.3920225581
 20
4.046852318
 30
0.0
 40
0.0250000000000003
100
AcDbArc
 50
328.4801414201
 51
148.4801414201
  0
ARC
  5
398
330
1F
100
AcDbEntity
  8
0
  6
Continuous
 62
     7
370
    30
100
AcDbCircle
 10
3.4653340335
 20
4.0018920291
 30
0.0
 40
0.0609999999999996
100
AcDbArc
 50
148.4801414201
 51
67.8489785585
  0
LINE
  5
399
330
1F
100
AcDbEntity
  8
0
  6
Continuous
 62
     7
370
    30
100
AcDbLine
 10
3.4883340491
 20
4.0583897979
 30
0.0
 11
3.4883340491
 21
5.5018920491
 31
0.0
  0
LINE
  5
39A
330
1F
100
AcDbEntity
  8
0
  6
Continuous
 62
     7
370
    30
100
AcDbLine
 10
3.4883340491
 20
5.5018920491
 30
0.0
 11
3.5383340448
 21
5.5018920491
 31
0.0
  0
LINE
  5
39B
330
1F
100
AcDbEntity
  8
0
  6
Continuous
 62
     7
370
    30
100
AcDbLine
 10
3.5383340448
 20
5.5018920491
 30
0.0
 11
3.5383340448
 21
4.8768920291
 31
0.0
  0
LINE
  5
39C
330
1F
100
AcDbEntity
  8
0
  6
Continuous
 62
     7
370
    30
100
AcDbLine
 10
3.5383340448
 20
4.8768920291
 30
0.0
 11
3.6031504294
 21
4.8768920291
 31
0.0
  0
LINE
  5
39D
330
1F
100
AcDbEntity
  8
0
  6
Continuous
 62
     7
370
    30
100
AcDbLine
 10
3.6031504294
 20
4.8768920291
 30
0.0
 11
3.5943341046
 21
4.9268920295
 31
0.0
  0
LINE
  5
39E
330
1F
100
AcDbEntity
  8
0
  6
Continuous
 62
     7
370
    30
100
AcDbLine
 10
3.5943341046
 20
4.9268920295
 30
0.0
 11
3.6278980902
 21
4.966892027
 31
0.0
  0
LINE
  5
39F
330
1F
100
AcDbEntity
  8
0
  6
Continuous
 62
     7
370
    30
100
AcDbLine
 10
3.6278980902
 20
4.966892027
 30
0.0
 11
3.6343340425
 21
4.966892027
 31
0.0
  0
ARC
  5
3A0
330
1F
100
AcDbEntity
  8
0
  6
Continuous
 62
     7
370
    30
100
AcDbCircle
 10
3.6343340335
 20
4.9568920291
 30
0.0
 40
0.0100000000000007
100
AcDbArc
 50
0.0
 51
90.0
  0
LINE
  5
3A1
330
1F
100
AcDbEntity
  8
0
  6
Continuous
 62
     7
370
    30
100
AcDbLine
 10
3.6443341003
 20
4.9568920333
 30
0.0
 11
3.6443341003
 21
4.8815847299
 31
0.0
  0
ARC
  5
3A2
330
1F
100
AcDbEntity
  8
0
  6
Continuous
 62
     7
370
    30
100
AcDbCircle
 10
3.5993340335
 20
4.8815847299
 30
0.0
 40
0.0449999999999994
100
AcDbArc
 50
276.6997651778
 51
0.0
  0
ARC
  5
3A3
330
1F
100
AcDbEntity
  8
0
  6
Continuous
 62
     7
370
    30
100
AcDbCircle
 10
3.6133340335
 20
4.7624041946
 30
0.0
 40
0.0750000000000002
100
AcDbArc
 50
96.6997651778
 51
180.0
  0
LINE
  5
3A4
330
1F
100
AcDbEntity
  8
0
  6
Continuous
 62
     7
370
    30
100
AcDbLine
 10
3.5383340448
 20
4.7624041967
 30
0.0
 11
3.5383340448
 21
4.0855102046
 31
0.0
  0
ARC
  5
3A5
330
1F
100
AcDbEntity
  8
0
  6
Continuous
 62
     7
370
    30
100
AcDbCircle
 10
3.4653340335
 20
4.0018920291
 30
0.0
 40
0.1110000000000002
100
AcDbArc
 50
311.1214761682
 51
48.8785238318
  0
LINE
  5
3A6
330
1F
100
AcDbEntity
  8
0
  6
Continuous
 62
     7
370
    30
100
AcDbLine
 10
3.5383340448
 20
3.9182738565
 30
0.0
 11
3.5383340448
 21
3.7398919972
 31
0.0
  0
LINE
  5
3A7
330
1F
100
AcDbEntity
  8
0
  6
Continuous
 62
     7
370
    30
100
AcDbLine
 10
3.8883340149
 20
3.7398919972
 30
0.0
 11
3.8883340149
 21
3.6898920015
 31
0.0
  0
LINE
  5
3A8
330
1F
100
AcDbEntity
  8
0
  6
Continuous
 62
     7
370
    30
100
AcDbLine
 10
2.7633340377
 20
3.7828920405
 30
0.0
 11
2.8133341801
 21
3.7828920405
 31
0.0
  0
LINE
  5
3A9
330
1F
100
AcDbEntity
  8
0
  6
Continuous
 62
     7
370
    30
100
AcDbLine
 10
2.7633340377
 20
3.7828920405
 30
0.0
 11
2.7633340377
 21
3.6898920015
 31
0.0
  0
LINE
  5
3AA
330
1F
100
AcDbEntity
  8
0
  6
Continuous
 62
     7
370
    30
100
AcDbLine
 10
3.5383340448
 20
3.7398919972
 30
0.0
 11
3.8883340149
 21
3.7398919972
 31
0.0
  0
LINE
  5
3AB
330
1F
100
AcDbEntity
  8
0
  6
Continuous
 62
     7
370
    30
100
AcDbLine
 10
2.7633340377
 20
3.6898920015
 30
0.0
 11
3.8883340149
 21
3.6898920015
 31
0.0
  0
LINE
  5
3AC
330
1F
100
AcDbEntity
  8
0
  6
Continuous
 62
     7
370
    30
100
AcDbLine
 10
3.0753339934
 20
3.7982655362
 30
0.0
 11
3.1945908024
 21
3.7982655362
 31
0.0
  0
LINE
  5
3AD
330
1F
100
AcDbEntity
  8
0
  6
Continuous
 62
     7
370
    30
100
AcDbLine
 10
2.9560773311
 20
3.7982655362
 30
0.0
 11
3.0753339934
 21
3.7982655362
 31
0.0
  0
LINE
  5
3AE
330
1F
100
AcDbEntity
  8
0
  6
Continuous
 62
     7
370
    30
100
AcDbLine
 10
6.4483781478
 20
4.9528920303
 30
0.0
 11
6.8282898523
 21
4.9528920303
 31
0.0
  0
LINE
  5
3AF
330
1F
100
AcDbEntity
  8
0
  6
Continuous
 62
     7
370
    30
100
AcDbLine
 10
6.4383340171
 20
4.9778920282
 30
0.0
 11
6.4826077723
 21
4.9778920282
 31
0.0
  0
LINE
  5
3B0
330
1F
100
AcDbEntity
  8
0
  6
Continuous
 62
     7
370
    30
100
AcDbLine
 10
6.517374044
 20
4.9778920282
 30
0.0
 11
6.759293956
 21
4.9778920282
 31
0.0
  0
LINE
  5
3B1
330
1F
100
AcDbEntity
  8
0
  6
Continuous
 62
     7
370
    30
100
AcDbLine
 10
6.7940603011
 20
4.9778920282
 30
0.0
 11
6.8383340563
 21
4.9778920282
 31
0.0
  0
SPLINE
  5
3B2
330
1F
100
AcDbEntity
  8
0
  6
Continuous
 62
     7
370
    30
100
AcDbSpline
210
0.0
220
0.0
230
1.0
 70
     8
 71
     3
 72
    13
 73
     9
 74
     0
 42
0.00000001
 43
0.00000001
 40
0.0
 40
0.0
 40
0.0
 40
0.0
 40
0.0633660589883499
 40
0.1266029906339043
 40
0.2338909337422918
 40
0.4228599146935742
 40
0.8232944833930952
 40
1.0
 40
1.0
 40
1.0
 40
1.0
 10
6.638334073363874
 20
5.087892031647731
 30
0.0
 10
6.638416879723023
 20
5.088785405036459
 30
0.0
 10
6.638582323698536
 20
5.090570331297798
 30
0.0
 10
6.640024973572852
 20
5.093484700124701
 30
0.0
 10
6.643246420934384
 20
5.096993332526399
 30
0.0
 10
6.651056794548943
 20
5.101162742813362
 30
0.0
 10
6.660402084889127
 20
5.102716624681955
 30
0.0
 10
6.667413502696312
 20
5.102850911511125
 30
0.0
 10
6.669560219303439
 20
5.102892026699841
 30
0.0
  0
LINE
  5
3B3
330
1F
100
AcDbEntity
  8
0
  6
Continuous
 62
     7
370
    30
100
AcDbLine
 10
6.6695602193
 20
5.1028920267
 30
0.0
 11
6.7608273383
 21
5.1028920267
 31
0.0
  0
SPLINE
  5
3B4
330
1F
100
AcDbEntity
  8
0
  6
Continuous
 62
     7
370
    30
100
AcDbSpline
210
0.0
220
0.0
230
1.0
 70
     8
 71
     3
 72
    14
 73
    10
 74
     0
 42
0.00000001
 43
0.00000001
 40
0.0
 40
0.0
 40
0.0
 40
0.0
 40
0.1232264041248654
 40
0.5267762682505979
 40
0.6663317677008499
 40
0.8066018610630284
 40
0.8858243798396911
 40
0.9657624324730546
 40
1.0
 40
1.0
 40
1.0
 40
1.0
 10
6.760827338311225
 20
5.102892026699841
 30
0.0
 10
6.762325034397732
 20
5.102871566185136
 30
0.0
 10
6.768727483296786
 20
5.102784100242602
 30
0.0
 10
6.776900520686238
 20
5.101705589631437
 30
0.0
 10
6.784725671420278
 20
5.098394291222228
 30
0.0
 10
6.788500895387625
 20
5.095700435027863
 30
0.0
 10
6.790945238365373
 20
5.092541223403607
 30
0.0
 10
6.791947215597761
 20
5.089979411510351
 30
0.0
 10
6.792028969042669
 20
5.088373571126226
 30
0.0
 10
6.792053484250789
 20
5.087892031647731
 30
0.0
  0
LINE
  5
3B5
330
1F
100
AcDbEntity
  8
0
  6
Continuous
 62
     7
370
    30
100
AcDbLine
 10
6.7920534843
 20
5.0878920316
 30
0.0
 11
6.7920534843
 21
4.9786104482
 31
0.0
  0
LINE
  5
3B6
330
1F
100
AcDbEntity
  8
0
  6
Continuous
 62
     7
370
    30
100
AcDbLine
 10
6.6383340734
 20
5.0878920316
 30
0.0
 11
6.6383340734
 21
5.0518920325
 31
0.0
  0
LINE
  5
3B7
330
1F
100
AcDbEntity
  8
0
  6
Continuous
 62
     7
370
    30
100
AcDbLine
 10
6.6383340734
 20
5.0398920328
 30
0.0
 11
6.6383340734
 21
4.9778920282
 31
0.0
  0
SPLINE
  5
3B8
330
1F
100
AcDbEntity
  8
0
  6
Continuous
 62
     7
370
    30
100
AcDbSpline
210
0.0
220
0.0
230
1.0
 70
     8
 71
     3
 72
    14
 73
    10
 74
     0
 42
0.00000001
 43
0.00000001
 40
0.0
 40
0.0
 40
0.0
 40
0.0
 40
0.1232265318689758
 40
0.5267783052774486
 40
0.6663311336471776
 40
0.8066013724220086
 40
0.885823973325633
 40
0.965762108827725
 40
0.9999999999999999
 40
0.9999999999999999
 40
0.9999999999999999
 40
0.9999999999999999
 10
6.607107854091824
 20
5.102892026699841
 30
0.0
 10
6.608605548855031
 20
5.102871565039584
 30
0.0
 10
6.615008010218005
 20
5.102784093952389
 30
0.0
 10
6.62318111618038
 20
5.101705655993064
 30
0.0
 10
6.63100613269161
 20
5.098394258972321
 30
0.0
 10
6.634781322903426
 20
5.095700435238473
 30
0.0
 10
6.637225714655861
 20
5.092541225925943
 30
0.0
 10
6.638227559477172
 20
5.089979399365245
 30
0.0
 10
6.638309501471197
 20
5.088373570507331
 30
0.0
 10
6.638334073363874
 20
5.087892031647731
 30
0.0
  0
LINE
  5
3B9
330
1F
100
AcDbEntity
  8
0
  6
Continuous
 62
     7
370
    30
100
AcDbLine
 10
6.6071078541
 20
5.1028920267
 30
0.0
 11
6.6695602193
 21
5.1028920267
 31
0.0
  0
SPLINE
  5
3BA
330
1F
100
AcDbEntity
  8
0
  6
Continuous
 62
     7
370
    30
100
AcDbSpline
210
0.0
220
0.0
230
1.0
 70
     8
 71
     3
 72
    13
 73
     9
 74
     0
 42
0.00000001
 43
0.00000001
 40
0.0
 40
0.0
 40
0.0
 40
0.0
 40
0.0633662961516562
 40
0.1266032023637528
 40
0.2338911023216695
 40
0.4228586632981405
 40
0.8232945544628356
 40
1.0
 40
1.0
 40
1.0
 40
1.0
 10
6.484614515811987
 20
5.087892031647731
 30
0.0
 10
6.484697352626713
 20
5.088785404159582
 30
0.0
 10
6.48486285710867
 20
5.090570324973533
 30
0.0
 10
6.486305479687437
 20
5.09348470194994
 30
0.0
 10
6.489526935254698
 20
5.096993314830054
 30
0.0
 10
6.497337235296239
 20
5.101162781490973
 30
0.0
 10
6.506682589599284
 20
5.102716618942083
 30
0.0
 10
6.513694020106531
 20
5.102850910246584
 30
0.0
 10
6.515840735084038
 20
5.102892026699841
 30
0.0
  0
LINE
  5
3BB
330
1F
100
AcDbEntity
  8
0
  6
Continuous
 62
     7
370
    30
100
AcDbLine
 10
6.5158407351
 20
5.1028920267
 30
0.0
 11
6.6071078541
 21
5.1028920267
 31
0.0
  0
LINE
  5
3BC
330
1F
100
AcDbEntity
  8
0
  6
Continuous
 62
     7
370
    30
100
AcDbLine
 10
6.4846145158
 20
5.0878920316
 30
0.0
 11
6.4846145158
 21
4.9786104482
 31
0.0
  0
SPLINE
  5
3BD
330
1F
100
AcDbEntity
  8
0
  6
Continuous
 62
     7
370
    30
100
AcDbSpline
210
0.0
220
0.0
230
1.0
 70
    24
 71
     3
 72
    14
 73
    10
 74
     0
 42
0.00000001
 43
0.00000001
 40
0.0
 40
0.0
 40
0.0
 40
0.0
 40
0.1739925795629019
 40
0.5318526853172157
 40
0.693072028873295
 40
0.8559957491923386
 40
0.9269757003168286
 40
0.9985150306218358
 40
1.0
 40
1.0
 40
1.0
 40
1.0
 10
6.484614515811987
 20
5.102892026699841
 30
0.0
 10
6.484614515811987
 20
5.102853217349231
 30
0.0
 10
6.484614515811987
 20
5.102734586673202
 30
0.0
 10
6.484614515811987
 20
5.10139928543211
 30
0.0
 10
6.484614515811987
 20
5.097968150060442
 30
0.0
 10
6.484614515811989
 20
5.094643789514798
 30
0.0
 10
6.484614515811986
 20
5.090973188047457
 30
0.0
 10
6.484614515811993
 20
5.08893819124774
 30
0.0
 10
6.484614515811987
 20
5.087912881603585
 30
0.0
 10
6.484614515811987
 20
5.087892031647731
 30
0.0
  0
LINE
  5
3BE
330
1F
100
AcDbEntity
  8
0
  6
Continuous
 62
     7
370
    30
100
AcDbLine
 10
6.4846145158
 20
5.1028920267
 30
0.0
 11
6.5158407351
 21
5.1028920267
 31
0.0
  0
SPLINE
  5
3BF
330
1F
100
AcDbEntity
  8
0
  6
Continuous
 62
     7
370
    30
100
AcDbSpline
210
0.0
220
0.0
230
1.0
 70
    24
 71
     3
 72
    13
 73
     9
 74
     0
 42
0.00000001
 43
0.00000001
 40
0.0
 40
0.0
 40
0.0
 40
0.0
 40
0.0408210566655007
 40
0.1012168528302943
 40
0.1942312101932022
 40
0.3488931186767335
 40
0.6576203061142486
 40
1.0
 40
1.0
 40
1.0
 40
1.0
 10
6.792053484250789
 20
5.087892031647731
 30
0.0
 10
6.792053484250789
 20
5.088466409898547
 30
0.0
 10
6.792053484250789
 20
5.089890595444701
 30
0.0
 10
6.792053484250789
 20
5.092453924584607
 30
0.0
 10
6.792053484250789
 20
5.095779590738982
 30
0.0
 10
6.792053484250789
 20
5.09980100850293
 30
0.0
 10
6.792053484250791
 20
5.102498744036388
 30
0.0
 10
6.792053484250789
 20
5.102756491906232
 30
0.0
 10
6.792053484250789
 20
5.102892026699841
 30
0.0
  0
LINE
  5
3C0
330
1F
100
AcDbEntity
  8
0
  6
Continuous
 62
     7
370
    30
100
AcDbLine
 10
6.7608273383
 20
5.1028920267
 30
0.0
 11
6.7920534843
 21
5.1028920267
 31
0.0
  0
LINE
  5
3C1
330
1F
100
AcDbEntity
  8
0
  6
Continuous
 62
     7
370
    30
100
AcDbLine
 10
6.5463340695
 20
4.7028920242
 30
0.0
 11
6.7119348098
 21
4.7028920242
 31
0.0
  0
LINE
  5
3C2
330
1F
100
AcDbEntity
  8
0
  6
Continuous
 62
     7
370
    30
100
AcDbLine
 10
4.0463339897
 20
4.7028920242
 30
0.0
 11
4.21193473
 21
4.7028920242
 31
0.0
  0
LINE
  5
3C3
330
1F
100
AcDbEntity
  8
0
  6
Continuous
 62
     7
370
    30
100
AcDbLine
 10
5.2963340296
 20
4.7028920242
 30
0.0
 11
5.4619347424
 21
4.7028920242
 31
0.0
  0
ARC
  5
3C4
330
1F
100
AcDbEntity
  8
0
  6
Continuous
 62
     7
370
    30
100
AcDbCircle
 10
5.5708340335
 20
4.7518920291
 30
0.0
 40
0.0250000000000001
100
AcDbArc
 50
90.0
 51
285.0
  0
ARC
  5
3C5
330
1F
100
AcDbEntity
  8
0
  6
Continuous
 62
     7
370
    30
100
AcDbCircle
 10
5.2559264229
 20
4.9989859126
 30
0.0
 40
0.0240000000000007
100
AcDbArc
 50
289.6973630774
 51
322.2281218619
  0
LINE
  5
3C6
330
1F
100
AcDbEntity
  8
0
  6
Continuous
 62
     7
370
    30
100
AcDbLine
 10
5.1570708717
 20
4.751499491
 30
0.0
 11
5.2024693823
 21
4.7393349974
 31
0.0
  0
ARC
  5
3C7
330
1F
100
AcDbEntity
  8
0
  6
Continuous
 62
     7
370
    30
100
AcDbCircle
 10
5.2058340335
 20
4.7518920291
 30
0.0
 40
0.0130000000000002
100
AcDbArc
 50
255.0
 51
90.0
  0
LINE
  5
3C8
330
1F
100
AcDbEntity
  8
0
  6
Continuous
 62
     7
370
    30
100
AcDbLine
 10
5.2058340417
 20
4.7648920288
 30
0.0
 11
5.1733340372
 21
4.7648920288
 31
0.0
  0
ARC
  5
3C9
330
1F
100
AcDbEntity
  8
0
  6
Continuous
 62
     7
370
    30
100
AcDbCircle
 10
5.1733340335
 20
4.8578920291
 30
0.0
 40
0.0930000000000009
100
AcDbArc
 50
109.6973630774
 51
270.0
  0
LINE
  5
3CA
330
1F
100
AcDbEntity
  8
0
  6
Continuous
 62
     7
370
    30
100
AcDbLine
 10
5.1419882126
 20
4.9454502313
 30
0.0
 11
5.2599710438
 21
4.9876880842
 31
0.0
  0
ARC
  5
3CB
330
1F
100
AcDbEntity
  8
0
  6
Continuous
 62
     7
370
    30
100
AcDbCircle
 10
5.2559264229
 20
4.9989859126
 30
0.0
 40
0.0120000000000009
100
AcDbArc
 50
289.6973630774
 51
322.2281218619
  0
ARC
  5
3CC
330
1F
100
AcDbEntity
  8
0
  6
Continuous
 62
     7
370
    30
100
AcDbCircle
 10
5.3883340335
 20
4.8963840926
 30
0.0
 40
0.1555079365079371
100
AcDbArc
 50
37.7718781381
 51
142.2281218619
  0
ARC
  5
3CD
330
1F
100
AcDbEntity
  8
0
  6
Continuous
 62
     7
370
    30
100
AcDbCircle
 10
5.520741644
 20
4.9989859126
 30
0.0
 40
0.0120000000000009
100
AcDbArc
 50
217.7718781381
 51
250.3026369226
  0
LINE
  5
3CE
330
1F
100
AcDbEntity
  8
0
  6
Continuous
 62
     7
370
    30
100
AcDbLine
 10
5.5166970231
 20
4.9876880842
 30
0.0
 11
5.6346798543
 21
4.9454502313
 31
0.0
  0
ARC
  5
3CF
330
1F
100
AcDbEntity
  8
0
  6
Continuous
 62
     7
370
    30
100
AcDbCircle
 10
5.6033340335
 20
4.8578920291
 30
0.0
 40
0.0930000000000009
100
AcDbArc
 50
270.0
 51
70.3026369226
  0
LINE
  5
3D0
330
1F
100
AcDbEntity
  8
0
  6
Continuous
 62
     7
370
    30
100
AcDbLine
 10
5.6033340298
 20
4.7648920288
 30
0.0
 11
5.5708340252
 21
4.7648920288
 31
0.0
  0
ARC
  5
3D1
330
1F
100
AcDbEntity
  8
0
  6
Continuous
 62
     7
370
    30
100
AcDbCircle
 10
5.5708340335
 20
4.7518920291
 30
0.0
 40
0.0130000000000002
100
AcDbArc
 50
90.0
 51
285.0
  0
LINE
  5
3D2
330
1F
100
AcDbEntity
  8
0
  6
Continuous
 62
     7
370
    30
100
AcDbLine
 10
5.5741986847
 20
4.7393349974
 30
0.0
 11
5.6195971952
 21
4.751499491
 31
0.0
  0
LINE
  5
3D3
330
1F
100
AcDbEntity
  8
0
  6
Continuous
 62
     7
370
    30
100
AcDbLine
 10
5.6195971952
 20
4.751499491
 30
0.0
 11
5.6227030277
 21
4.7399083749
 31
0.0
  0
ARC
  5
3D4
330
1F
100
AcDbEntity
  8
0
  6
Continuous
 62
     7
370
    30
100
AcDbCircle
 10
5.520741644
 20
4.9989859126
 30
0.0
 40
0.0240000000000001
100
AcDbArc
 50
217.7718781381
 51
250.3026369226
  0
LINE
  5
3D5
330
1F
100
AcDbEntity
  8
0
  6
Continuous
 62
     7
370
    30
100
AcDbLine
 10
5.6033340298
 20
4.7768920285
 30
0.0
 11
5.5708340252
 21
4.7768920285
 31
0.0
  0
ARC
  5
3D6
330
1F
100
AcDbEntity
  8
0
  6
Continuous
 62
     7
370
    30
100
AcDbCircle
 10
5.3883340335
 20
4.8963840926
 30
0.0
 40
0.143507936507937
100
AcDbArc
 50
37.7718781381
 51
142.2281218619
  0
LINE
  5
3D7
330
1F
100
AcDbEntity
  8
0
  6
Continuous
 62
     7
370
    30
100
AcDbLine
 10
5.1539650393
 20
4.7399083749
 30
0.0
 11
5.1570708717
 21
4.751499491
 31
0.0
  0
LINE
  5
3D8
330
1F
100
AcDbEntity
  8
0
  6
Continuous
 62
     7
370
    30
100
AcDbLine
 10
5.5773045171
 20
4.7277438813
 30
0.0
 11
5.6227030277
 21
4.7399083749
 31
0.0
  0
LINE
  5
3D9
330
1F
100
AcDbEntity
  8
0
  6
Continuous
 62
     7
370
    30
100
AcDbLine
 10
5.5126523973
 20
4.9763902431
 30
0.0
 11
5.6306352377
 21
4.9341523993
 31
0.0
  0
ARC
  5
3DA
330
1F
100
AcDbEntity
  8
0
  6
Continuous
 62
     7
370
    30
100
AcDbCircle
 10
5.2058340335
 20
4.7518920291
 30
0.0
 40
0.0249999999999999
100
AcDbArc
 50
255.0
 51
90.0
  0
LINE
  5
3DB
330
1F
100
AcDbEntity
  8
0
  6
Continuous
 62
     7
370
    30
100
AcDbLine
 10
5.1539650393
 20
4.7399083749
 30
0.0
 11
5.1993635498
 21
4.7277438813
 31
0.0
  0
ARC
  5
3DC
330
1F
100
AcDbEntity
  8
0
  6
Continuous
 62
     7
370
    30
100
AcDbCircle
 10
5.1733340335
 20
4.8578920291
 30
0.0
 40
0.0810000000000004
100
AcDbArc
 50
109.6973630774
 51
270.0
  0
LINE
  5
3DD
330
1F
100
AcDbEntity
  8
0
  6
Continuous
 62
     7
370
    30
100
AcDbLine
 10
5.2058340417
 20
4.7768920285
 30
0.0
 11
5.1733340372
 21
4.7768920285
 31
0.0
  0
LINE
  5
3DE
330
1F
100
AcDbEntity
  8
0
  6
Continuous
 62
     7
370
    30
100
AcDbLine
 10
5.1460328292
 20
4.9341523993
 30
0.0
 11
5.2640156696
 21
4.9763902431
 31
0.0
  0
ARC
  5
3DF
330
1F
100
AcDbEntity
  8
0
  6
Continuous
 62
     7
370
    30
100
AcDbCircle
 10
5.6033340335
 20
4.8578920291
 30
0.0
 40
0.0810000000000004
100
AcDbArc
 50
270.0
 51
70.3026369226
  0
ARC
  5
3E0
330
1F
100
AcDbEntity
  8
0
  6
Continuous
 62
     7
370
    30
100
AcDbCircle
 10
6.6383340335
 20
4.8963840926
 30
0.0
 40
0.143507936507937
100
AcDbArc
 50
37.7718781381
 51
142.2281218619
  0
LINE
  5
3E1
330
1F
100
AcDbEntity
  8
0
  6
Continuous
 62
     7
370
    30
100
AcDbLine
 10
6.7626524372
 20
4.9763902431
 30
0.0
 11
6.8806351676
 21
4.9341523993
 31
0.0
  0
ARC
  5
3E2
330
1F
100
AcDbEntity
  8
0
  6
Continuous
 62
     7
370
    30
100
AcDbCircle
 10
6.8208340335
 20
4.7518920291
 30
0.0
 40
0.0250000000000001
100
AcDbArc
 50
90.0
 51
285.0
  0
ARC
  5
3E3
330
1F
100
AcDbEntity
  8
0
  6
Continuous
 62
     7
370
    30
100
AcDbCircle
 10
6.8533340335
 20
4.8578920291
 30
0.0
 40
0.0810000000000004
100
AcDbArc
 50
270.0
 51
70.3026369226
  0
ARC
  5
3E4
330
1F
100
AcDbEntity
  8
0
  6
Continuous
 62
     7
370
    30
100
AcDbCircle
 10
6.8208340335
 20
4.7518920291
 30
0.0
 40
0.0130000000000002
100
AcDbArc
 50
90.0
 51
285.0
  0
LINE
  5
3E5
330
1F
100
AcDbEntity
  8
0
  6
Continuous
 62
     7
370
    30
100
AcDbLine
 10
6.8695971618
 20
4.751499491
 30
0.0
 11
6.8727030859
 21
4.7399083749
 31
0.0
  0
ARC
  5
3E6
330
1F
100
AcDbEntity
  8
0
  6
Continuous
 62
     7
370
    30
100
AcDbCircle
 10
6.770741644
 20
4.9989859126
 30
0.0
 40
0.0240000000000001
100
AcDbArc
 50
217.7718781381
 51
250.3026369226
  0
ARC
  5
3E7
330
1F
100
AcDbEntity
  8
0
  6
Continuous
 62
     7
370
    30
100
AcDbCircle
 10
6.8533340335
 20
4.8578920291
 30
0.0
 40
0.0930000000000009
100
AcDbArc
 50
270.0
 51
70.3026369226
  0
ARC
  5
3E8
330
1F
100
AcDbEntity
  8
0
  6
Continuous
 62
     7
370
    30
100
AcDbCircle
 10
6.6383340335
 20
4.8963840926
 30
0.0
 40
0.1555079365079371
100
AcDbArc
 50
37.7718781381
 51
142.2281218619
  0
LINE
  5
3E9
330
1F
100
AcDbEntity
  8
0
  6
Continuous
 62
     7
370
    30
100
AcDbLine
 10
6.8533340697
 20
4.7768920285
 30
0.0
 11
6.8208339918
 21
4.7768920285
 31
0.0
  0
LINE
  5
3EA
330
1F
100
AcDbEntity
  8
0
  6
Continuous
 62
     7
370
    30
100
AcDbLine
 10
6.8533340697
 20
4.7648920288
 30
0.0
 11
6.8208339918
 21
4.7648920288
 31
0.0
  0
LINE
  5
3EB
330
1F
100
AcDbEntity
  8
0
  6
Continuous
 62
     7
370
    30
100
AcDbLine
 10
6.8241986329
 20
4.7393349974
 30
0.0
 11
6.8695971618
 21
4.751499491
 31
0.0
  0
ARC
  5
3EC
330
1F
100
AcDbEntity
  8
0
  6
Continuous
 62
     7
370
    30
100
AcDbCircle
 10
6.5059264229
 20
4.9989859126
 30
0.0
 40
0.0240000000000014
100
AcDbArc
 50
289.6973630774
 51
322.2281218619
  0
ARC
  5
3ED
330
1F
100
AcDbEntity
  8
0
  6
Continuous
 62
     7
370
    30
100
AcDbCircle
 10
6.770741644
 20
4.9989859126
 30
0.0
 40
0.0120000000000009
100
AcDbArc
 50
217.7718781381
 51
250.3026369226
  0
LINE
  5
3EE
330
1F
100
AcDbEntity
  8
0
  6
Continuous
 62
     7
370
    30
100
AcDbLine
 10
6.3919881792
 20
4.9454502313
 30
0.0
 11
6.5099710562
 21
4.9876880842
 31
0.0
  0
LINE
  5
3EF
330
1F
100
AcDbEntity
  8
0
  6
Continuous
 62
     7
370
    30
100
AcDbLine
 10
6.7666970172
 20
4.9876880842
 30
0.0
 11
6.8846798942
 21
4.9454502313
 31
0.0
  0
LINE
  5
3F0
330
1F
100
AcDbEntity
  8
0
  6
Continuous
 62
     7
370
    30
100
AcDbLine
 10
6.827304557
 20
4.7277438813
 30
0.0
 11
6.8727030859
 21
4.7399083749
 31
0.0
  0
ARC
  5
3F1
330
1F
100
AcDbEntity
  8
0
  6
Continuous
 62
     7
370
    30
100
AcDbCircle
 10
6.5059264229
 20
4.9989859126
 30
0.0
 40
0.0120000000000009
100
AcDbArc
 50
289.6973630774
 51
322.2281218619
  0
ARC
  5
3F2
330
1F
100
AcDbEntity
  8
0
  6
Continuous
 62
     7
370
    30
100
AcDbCircle
 10
6.4558340335
 20
4.7518920291
 30
0.0
 40
0.0249999999999999
100
AcDbArc
 50
255.0
 51
90.0
  0
LINE
  5
3F3
330
1F
100
AcDbEntity
  8
0
  6
Continuous
 62
     7
370
    30
100
AcDbLine
 10
6.4039650608
 20
4.7399083749
 30
0.0
 11
6.4070708383
 21
4.751499491
 31
0.0
  0
ARC
  5
3F4
330
1F
100
AcDbEntity
  8
0
  6
Continuous
 62
     7
370
    30
100
AcDbCircle
 10
6.4233340335
 20
4.8578920291
 30
0.0
 40
0.0810000000000004
100
AcDbArc
 50
109.6973630774
 51
270.0
  0
LINE
  5
3F5
330
1F
100
AcDbEntity
  8
0
  6
Continuous
 62
     7
370
    30
100
AcDbLine
 10
6.4558340083
 20
4.7648920288
 30
0.0
 11
6.4233340037
 21
4.7648920288
 31
0.0
  0
LINE
  5
3F6
330
1F
100
AcDbEntity
  8
0
  6
Continuous
 62
     7
370
    30
100
AcDbLine
 10
6.3960328324
 20
4.9341523993
 30
0.0
 11
6.5140156362
 21
4.9763902431
 31
0.0
  0
LINE
  5
3F7
330
1F
100
AcDbEntity
  8
0
  6
Continuous
 62
     7
370
    30
100
AcDbLine
 10
6.4558340083
 20
4.7768920285
 30
0.0
 11
6.4233340037
 21
4.7768920285
 31
0.0
  0
ARC
  5
3F8
330
1F
100
AcDbEntity
  8
0
  6
Continuous
 62
     7
370
    30
100
AcDbCircle
 10
6.4558340335
 20
4.7518920291
 30
0.0
 40
0.0129999999999999
100
AcDbArc
 50
255.0
 51
90.0
  0
ARC
  5
3F9
330
1F
100
AcDbEntity
  8
0
  6
Continuous
 62
     7
370
    30
100
AcDbCircle
 10
6.4233340335
 20
4.8578920291
 30
0.0
 40
0.0930000000000009
100
AcDbArc
 50
109.6973630774
 51
270.0
  0
LINE
  5
3FA
330
1F
100
AcDbEntity
  8
0
  6
Continuous
 62
     7
370
    30
100
AcDbLine
 10
6.4070708383
 20
4.751499491
 30
0.0
 11
6.4524693672
 21
4.7393349974
 31
0.0
  0
LINE
  5
3FB
330
1F
100
AcDbEntity
  8
0
  6
Continuous
 62
     7
370
    30
100
AcDbLine
 10
6.4039650608
 20
4.7399083749
 30
0.0
 11
6.4493635897
 21
4.7277438813
 31
0.0
  0
ARC
  5
3FC
330
1F
100
AcDbEntity
  8
0
  6
Continuous
 62
     7
370
    30
100
AcDbCircle
 10
4.3208340335
 20
4.7518920291
 30
0.0
 40
0.0250000000000004
100
AcDbArc
 50
90.0
 51
285.0
  0
LINE
  5
3FD
330
1F
100
AcDbEntity
  8
0
  6
Continuous
 62
     7
370
    30
100
AcDbLine
 10
4.3533340632
 20
4.7768920285
 30
0.0
 11
4.3208340587
 21
4.7768920285
 31
0.0
  0
ARC
  5
3FE
330
1F
100
AcDbEntity
  8
0
  6
Continuous
 62
     7
370
    30
100
AcDbCircle
 10
4.3533340335
 20
4.8578920291
 30
0.0
 40
0.0810000000000004
100
AcDbArc
 50
270.0
 51
70.3026369226
  0
LINE
  5
3FF
330
1F
100
AcDbEntity
  8
0
  6
Continuous
 62
     7
370
    30
100
AcDbLine
 10
4.2626524308
 20
4.9763902431
 30
0.0
 11
4.3806352345
 21
4.9341523993
 31
0.0
  0
ARC
  5
400
330
1F
100
AcDbEntity
  8
0
  6
Continuous
 62
     7
370
    30
100
AcDbCircle
 10
4.270741644
 20
4.9989859126
 30
0.0
 40
0.0240000000000007
100
AcDbArc
 50
217.7718781381
 51
250.3026369226
  0
ARC
  5
401
330
1F
100
AcDbEntity
  8
0
  6
Continuous
 62
     7
370
    30
100
AcDbCircle
 10
4.1383340335
 20
4.8963840926
 30
0.0
 40
0.143507936507937
100
AcDbArc
 50
37.7718781381
 51
142.2281218619
  0
LINE
  5
402
330
1F
100
AcDbEntity
  8
0
  6
Continuous
 62
     7
370
    30
100
AcDbLine
 10
3.8960328993
 20
4.9341523993
 30
0.0
 11
4.0140156297
 21
4.9763902431
 31
0.0
  0
LINE
  5
403
330
1F
100
AcDbEntity
  8
0
  6
Continuous
 62
     7
370
    30
100
AcDbLine
 10
3.9558340752
 20
4.7768920285
 30
0.0
 11
3.9233339973
 21
4.7768920285
 31
0.0
  0
LINE
  5
404
330
1F
100
AcDbEntity
  8
0
  6
Continuous
 62
     7
370
    30
100
AcDbLine
 10
3.9070709051
 20
4.751499491
 30
0.0
 11
3.952469434
 21
4.7393349974
 31
0.0
  0
ARC
  5
405
330
1F
100
AcDbEntity
  8
0
  6
Continuous
 62
     7
370
    30
100
AcDbCircle
 10
3.9558340335
 20
4.7518920291
 30
0.0
 40
0.0130000000000002
100
AcDbArc
 50
255.0
 51
90.0
  0
LINE
  5
406
330
1F
100
AcDbEntity
  8
0
  6
Continuous
 62
     7
370
    30
100
AcDbLine
 10
3.8919881727
 20
4.9454502313
 30
0.0
 11
4.0099710498
 21
4.9876880842
 31
0.0
  0
ARC
  5
407
330
1F
100
AcDbEntity
  8
0
  6
Continuous
 62
     7
370
    30
100
AcDbCircle
 10
4.0059264229
 20
4.9989859126
 30
0.0
 40
0.0120000000000009
100
AcDbArc
 50
289.6973630774
 51
322.2281218619
  0
ARC
  5
408
330
1F
100
AcDbEntity
  8
0
  6
Continuous
 62
     7
370
    30
100
AcDbCircle
 10
4.3533340335
 20
4.8578920291
 30
0.0
 40
0.0930000000000009
100
AcDbArc
 50
270.0
 51
70.3026369226
  0
LINE
  5
409
330
1F
100
AcDbEntity
  8
0
  6
Continuous
 62
     7
370
    30
100
AcDbLine
 10
4.3533340632
 20
4.7648920288
 30
0.0
 11
4.3208340587
 21
4.7648920288
 31
0.0
  0
ARC
  5
40A
330
1F
100
AcDbEntity
  8
0
  6
Continuous
 62
     7
370
    30
100
AcDbCircle
 10
4.3208340335
 20
4.7518920291
 30
0.0
 40
0.0130000000000004
100
AcDbArc
 50
90.0
 51
285.0
  0
LINE
  5
40B
330
1F
100
AcDbEntity
  8
0
  6
Continuous
 62
     7
370
    30
100
AcDbLine
 10
4.3241986998
 20
4.7393349974
 30
0.0
 11
4.3695972287
 21
4.751499491
 31
0.0
  0
LINE
  5
40C
330
1F
100
AcDbEntity
  8
0
  6
Continuous
 62
     7
370
    30
100
AcDbLine
 10
4.3695972287
 20
4.751499491
 30
0.0
 11
4.3727030061
 21
4.7399083749
 31
0.0
  0
LINE
  5
40D
330
1F
100
AcDbEntity
  8
0
  6
Continuous
 62
     7
370
    30
100
AcDbLine
 10
4.3273044772
 20
4.7277438813
 30
0.0
 11
4.3727030061
 21
4.7399083749
 31
0.0
  0
LINE
  5
40E
330
1F
100
AcDbEntity
  8
0
  6
Continuous
 62
     7
370
    30
100
AcDbLine
 10
3.903964981
 20
4.7399083749
 30
0.0
 11
3.9070709051
 21
4.751499491
 31
0.0
  0
ARC
  5
40F
330
1F
100
AcDbEntity
  8
0
  6
Continuous
 62
     7
370
    30
100
AcDbCircle
 10
4.1383340335
 20
4.8963840926
 30
0.0
 40
0.1555079365079371
100
AcDbArc
 50
37.7718781381
 51
142.2281218619
  0
LINE
  5
410
330
1F
100
AcDbEntity
  8
0
  6
Continuous
 62
     7
370
    30
100
AcDbLine
 10
4.2666970107
 20
4.9876880842
 30
0.0
 11
4.3846798878
 21
4.9454502313
 31
0.0
  0
ARC
  5
411
330
1F
100
AcDbEntity
  8
0
  6
Continuous
 62
     7
370
    30
100
AcDbCircle
 10
4.0059264229
 20
4.9989859126
 30
0.0
 40
0.0240000000000007
100
AcDbArc
 50
289.6973630774
 51
322.2281218619
  0
LINE
  5
412
330
1F
100
AcDbEntity
  8
0
  6
Continuous
 62
     7
370
    30
100
AcDbLine
 10
3.903964981
 20
4.7399083749
 30
0.0
 11
3.9493635099
 21
4.7277438813
 31
0.0
  0
ARC
  5
413
330
1F
100
AcDbEntity
  8
0
  6
Continuous
 62
     7
370
    30
100
AcDbCircle
 10
4.270741644
 20
4.9989859126
 30
0.0
 40
0.0120000000000009
100
AcDbArc
 50
217.7718781381
 51
250.3026369226
  0
ARC
  5
414
330
1F
100
AcDbEntity
  8
0
  6
Continuous
 62
     7
370
    30
100
AcDbCircle
 10
3.9233340335
 20
4.8578920291
 30
0.0
 40
0.0810000000000004
100
AcDbArc
 50
109.6973630774
 51
270.0
  0
LINE
  5
415
330
1F
100
AcDbEntity
  8
0
  6
Continuous
 62
     7
370
    30
100
AcDbLine
 10
3.9558340752
 20
4.7648920288
 30
0.0
 11
3.9233339973
 21
4.7648920288
 31
0.0
  0
ARC
  5
416
330
1F
100
AcDbEntity
  8
0
  6
Continuous
 62
     7
370
    30
100
AcDbCircle
 10
3.9233340335
 20
4.8578920291
 30
0.0
 40
0.0930000000000009
100
AcDbArc
 50
109.6973630774
 51
270.0
  0
ARC
  5
417
330
1F
100
AcDbEntity
  8
0
  6
Continuous
 62
     7
370
    30
100
AcDbCircle
 10
3.9558340335
 20
4.7518920291
 30
0.0
 40
0.0250000000000003
100
AcDbArc
 50
255.0
 51
90.0
  0
LINE
  5
418
330
1F
100
AcDbEntity
  8
0
  6
Continuous
 62
     7
370
    30
100
AcDbLine
 10
4.8513340236
 20
5.5018920491
 30
0.0
 11
4.8513340236
 21
4.9352343056
 31
0.0
  0
LINE
  5
419
330
1F
100
AcDbEntity
  8
0
  6
Continuous
 62
     7
370
    30
100
AcDbLine
 10
4.8513340236
 20
4.8871930561
 30
0.0
 11
4.8513340236
 21
4.8768920291
 31
0.0
  0
LINE
  5
41A
330
1F
100
AcDbEntity
  8
0
  6
Continuous
 62
     7
370
    30
100
AcDbLine
 10
4.8513340236
 20
5.5018920491
 30
0.0
 11
4.7883340481
 21
5.5018920491
 31
0.0
  0
LINE
  5
41B
330
1F
100
AcDbEntity
  8
0
  6
Continuous
 62
     7
370
    30
100
AcDbLine
 10
5.9253340433
 20
5.5018920491
 30
0.0
 11
5.9253340433
 21
4.9352343056
 31
0.0
  0
LINE
  5
41C
330
1F
100
AcDbEntity
  8
0
  6
Continuous
 62
     7
370
    30
100
AcDbLine
 10
5.9253340433
 20
4.8871930561
 30
0.0
 11
5.9253340433
 21
4.8768920291
 31
0.0
  0
LINE
  5
41D
330
1F
100
AcDbEntity
  8
0
  6
Continuous
 62
     7
370
    30
100
AcDbLine
 10
5.9253340433
 20
5.5018920491
 30
0.0
 11
5.9883340189
 21
5.5018920491
 31
0.0
  0
LINE
  5
41E
330
1F
100
AcDbEntity
  8
0
  6
Continuous
 62
     7
370
    30
100
AcDbLine
 10
4.8513340236
 20
5.0018920276
 30
0.0
 11
4.866334037
 21
5.0018920276
 31
0.0
  0
LINE
  5
41F
330
1F
100
AcDbEntity
  8
0
  6
Continuous
 62
     7
370
    30
100
AcDbLine
 10
4.866334037
 20
5.5018920491
 30
0.0
 11
4.8513340236
 21
5.5018920491
 31
0.0
  0
LINE
  5
420
330
1F
100
AcDbEntity
  8
0
  6
Continuous
 62
     7
370
    30
100
AcDbLine
 10
5.9103340299
 20
5.0018920276
 30
0.0
 11
5.9253340433
 21
5.0018920276
 31
0.0
  0
LINE
  5
421
330
1F
100
AcDbEntity
  8
0
  6
Continuous
 62
     7
370
    30
100
AcDbLine
 10
5.9253340433
 20
5.5018920491
 30
0.0
 11
5.9103340299
 21
5.5018920491
 31
0.0
  0
LINE
  5
422
330
1F
100
AcDbEntity
  8
0
  6
Continuous
 62
     7
370
    30
100
AcDbLine
 10
5.8573340389
 20
5.5178920243
 30
0.0
 11
5.8573340389
 21
5.5958920499
 31
0.0
  0
LINE
  5
423
330
1F
100
AcDbEntity
  8
0
  6
Continuous
 62
     7
370
    30
100
AcDbLine
 10
4.9193340281
 20
5.5958920499
 30
0.0
 11
5.8573340389
 21
5.5958920499
 31
0.0
  0
LINE
  5
424
330
1F
100
AcDbEntity
  8
0
  6
Continuous
 62
     7
370
    30
100
AcDbLine
 10
4.9193340281
 20
5.5958920499
 30
0.0
 11
4.9193340281
 21
5.5178920243
 31
0.0
  0
LINE
  5
425
330
1F
100
AcDbEntity
  8
0
  6
Continuous
 62
     7
370
    30
100
AcDbLine
 10
5.9103340299
 20
5.0018920276
 30
0.0
 11
5.5025741029
 21
5.0018920276
 31
0.0
  0
LINE
  5
426
330
1F
100
AcDbEntity
  8
0
  6
Continuous
 62
     7
370
    30
100
AcDbLine
 10
5.4856099431
 20
5.0018920276
 30
0.0
 11
5.2910581239
 21
5.0018920276
 31
0.0
  0
LINE
  5
427
330
1F
100
AcDbEntity
  8
0
  6
Continuous
 62
     7
370
    30
100
AcDbLine
 10
5.274093964
 20
5.0018920276
 30
0.0
 11
4.866334037
 21
5.0018920276
 31
0.0
  0
LINE
  5
428
330
1F
100
AcDbEntity
  8
0
  6
Continuous
 62
     7
370
    30
100
AcDbLine
 10
4.9193340281
 20
5.5178920243
 30
0.0
 11
4.9193340281
 21
5.5018920491
 31
0.0
  0
LINE
  5
429
330
1F
100
AcDbEntity
  8
0
  6
Continuous
 62
     7
370
    30
100
AcDbLine
 10
5.8573340389
 20
5.5018920491
 30
0.0
 11
5.8573340389
 21
5.5178920243
 31
0.0
  0
LINE
  5
42A
330
1F
100
AcDbEntity
  8
0
  6
Continuous
 62
     7
370
    30
100
AcDbLine
 10
5.8573340389
 20
5.5018920491
 30
0.0
 11
5.9103340299
 21
5.5018920491
 31
0.0
  0
LINE
  5
42B
330
1F
100
AcDbEntity
  8
0
  6
Continuous
 62
     7
370
    30
100
AcDbLine
 10
4.866334037
 20
5.5018920491
 30
0.0
 11
4.9193340281
 21
5.5018920491
 31
0.0
  0
LINE
  5
42C
330
1F
100
AcDbEntity
  8
0
  6
Continuous
 62
     7
370
    30
100
AcDbLine
 10
5.6383340304
 20
4.9678920254
 30
0.0
 11
5.6383340304
 21
4.9440546683
 31
0.0
  0
LINE
  5
42D
330
1F
100
AcDbEntity
  8
0
  6
Continuous
 62
     7
370
    30
100
AcDbLine
 10
5.6383340304
 20
4.9309399598
 30
0.0
 11
5.6383340304
 21
4.8898920296
 31
0.0
  0
LINE
  5
42E
330
1F
100
AcDbEntity
  8
0
  6
Continuous
 62
     7
370
    30
100
AcDbLine
 10
5.6383340304
 20
4.8898920296
 30
0.0
 11
5.576334035
 21
4.8898920296
 31
0.0
  0
LINE
  5
42F
330
1F
100
AcDbEntity
  8
0
  6
Continuous
 62
     7
370
    30
100
AcDbLine
 10
5.4792147728
 20
4.8898920296
 30
0.0
 11
5.3147642159
 21
4.8898920296
 31
0.0
  0
LINE
  5
430
330
1F
100
AcDbEntity
  8
0
  6
Continuous
 62
     7
370
    30
100
AcDbLine
 10
5.2003340319
 20
4.8898920296
 30
0.0
 11
5.1383340365
 21
4.8898920296
 31
0.0
  0
LINE
  5
431
330
1F
100
AcDbEntity
  8
0
  6
Continuous
 62
     7
370
    30
100
AcDbLine
 10
5.1383340365
 20
4.8898920296
 30
0.0
 11
5.1383340365
 21
4.9309399598
 31
0.0
  0
LINE
  5
432
330
1F
100
AcDbEntity
  8
0
  6
Continuous
 62
     7
370
    30
100
AcDbLine
 10
5.1383340365
 20
4.9440546683
 30
0.0
 11
5.1383340365
 21
4.9678920254
 31
0.0
  0
LINE
  5
433
330
1F
100
AcDbEntity
  8
0
  6
Continuous
 62
     7
370
    30
100
AcDbLine
 10
5.6383340304
 20
4.9678920254
 30
0.0
 11
5.6383340304
 21
5.0018920276
 31
0.0
  0
LINE
  5
434
330
1F
100
AcDbEntity
  8
0
  6
Continuous
 62
     7
370
    30
100
AcDbLine
 10
5.1383340365
 20
5.0018920276
 30
0.0
 11
5.1383340365
 21
4.9678920254
 31
0.0
  0
LINE
  5
435
330
1F
100
AcDbEntity
  8
0
  6
Continuous
 62
     7
370
    30
100
AcDbLine
 10
6.1013340635
 20
5.5018920491
 30
0.0
 11
6.1013340635
 21
4.9352343056
 31
0.0
  0
LINE
  5
436
330
1F
100
AcDbEntity
  8
0
  6
Continuous
 62
     7
370
    30
100
AcDbLine
 10
6.1013340635
 20
4.8871930561
 30
0.0
 11
6.1013340635
 21
4.8768920291
 31
0.0
  0
LINE
  5
437
330
1F
100
AcDbEntity
  8
0
  6
Continuous
 62
     7
370
    30
100
AcDbLine
 10
6.1013340635
 20
5.5018920491
 30
0.0
 11
6.0383340513
 21
5.5018920491
 31
0.0
  0
LINE
  5
438
330
1F
100
AcDbEntity
  8
0
  6
Continuous
 62
     7
370
    30
100
AcDbLine
 10
7.1753340832
 20
5.5018920491
 30
0.0
 11
7.1753340832
 21
4.9352343056
 31
0.0
  0
LINE
  5
439
330
1F
100
AcDbEntity
  8
0
  6
Continuous
 62
     7
370
    30
100
AcDbLine
 10
7.1753340832
 20
4.8871930561
 30
0.0
 11
7.1753340832
 21
4.8768920291
 31
0.0
  0
LINE
  5
43A
330
1F
100
AcDbEntity
  8
0
  6
Continuous
 62
     7
370
    30
100
AcDbLine
 10
7.1753340832
 20
5.5018920491
 30
0.0
 11
7.2383340221
 21
5.5018920491
 31
0.0
  0
LINE
  5
43B
330
1F
100
AcDbEntity
  8
0
  6
Continuous
 62
     7
370
    30
100
AcDbLine
 10
6.3883340214
 20
4.9528920303
 30
0.0
 11
6.3883340214
 21
4.9440546683
 31
0.0
  0
LINE
  5
43C
330
1F
100
AcDbEntity
  8
0
  6
Continuous
 62
     7
370
    30
100
AcDbLine
 10
6.3883340214
 20
4.9309399598
 30
0.0
 11
6.3883340214
 21
4.8898920296
 31
0.0
  0
LINE
  5
43D
330
1F
100
AcDbEntity
  8
0
  6
Continuous
 62
     7
370
    30
100
AcDbLine
 10
6.888334052
 20
4.8898920296
 30
0.0
 11
6.8263340749
 21
4.8898920296
 31
0.0
  0
LINE
  5
43E
330
1F
100
AcDbEntity
  8
0
  6
Continuous
 62
     7
370
    30
100
AcDbLine
 10
6.4503339985
 20
4.8898920296
 30
0.0
 11
6.3883340214
 21
4.8898920296
 31
0.0
  0
LINE
  5
43F
330
1F
100
AcDbEntity
  8
0
  6
Continuous
 62
     7
370
    30
100
AcDbLine
 10
6.888334052
 20
4.9528920303
 30
0.0
 11
6.888334052
 21
4.9440546683
 31
0.0
  0
LINE
  5
440
330
1F
100
AcDbEntity
  8
0
  6
Continuous
 62
     7
370
    30
100
AcDbLine
 10
6.888334052
 20
4.9309399598
 30
0.0
 11
6.888334052
 21
4.8898920296
 31
0.0
  0
LINE
  5
441
330
1F
100
AcDbEntity
  8
0
  6
Continuous
 62
     7
370
    30
100
AcDbLine
 10
6.888334052
 20
4.9528920303
 30
0.0
 11
6.8638927744
 21
4.9528920303
 31
0.0
  0
LINE
  5
442
330
1F
100
AcDbEntity
  8
0
  6
Continuous
 62
     7
370
    30
100
AcDbLine
 10
6.4127753724
 20
4.9528920303
 30
0.0
 11
6.3883340214
 21
4.9528920303
 31
0.0
  0
LINE
  5
443
330
1F
100
AcDbEntity
  8
0
  6
Continuous
 62
     7
370
    30
100
AcDbLine
 10
7.1603340698
 20
5.0018920276
 30
0.0
 11
7.1753340832
 21
5.0018920276
 31
0.0
  0
LINE
  5
444
330
1F
100
AcDbEntity
  8
0
  6
Continuous
 62
     7
370
    30
100
AcDbLine
 10
7.1753340832
 20
5.5018920491
 30
0.0
 11
7.1603340698
 21
5.5018920491
 31
0.0
  0
LINE
  5
445
330
1F
100
AcDbEntity
  8
0
  6
Continuous
 62
     7
370
    30
100
AcDbLine
 10
6.888334052
 20
4.9528920303
 30
0.0
 11
6.888334052
 21
4.9678920254
 31
0.0
  0
LINE
  5
446
330
1F
100
AcDbEntity
  8
0
  6
Continuous
 62
     7
370
    30
100
AcDbLine
 10
6.3883340214
 20
4.9678920254
 30
0.0
 11
6.3883340214
 21
4.9528920303
 31
0.0
  0
LINE
  5
447
330
1F
100
AcDbEntity
  8
0
  6
Continuous
 62
     7
370
    30
100
AcDbLine
 10
6.1163340036
 20
5.5018920491
 30
0.0
 11
6.1013340635
 21
5.5018920491
 31
0.0
  0
LINE
  5
448
330
1F
100
AcDbEntity
  8
0
  6
Continuous
 62
     7
370
    30
100
AcDbLine
 10
6.1013340635
 20
5.0018920276
 30
0.0
 11
6.1163340036
 21
5.0018920276
 31
0.0
  0
LINE
  5
449
330
1F
100
AcDbEntity
  8
0
  6
Continuous
 62
     7
370
    30
100
AcDbLine
 10
7.1073340421
 20
5.5178920243
 30
0.0
 11
7.1073340421
 21
5.5958920499
 31
0.0
  0
LINE
  5
44A
330
1F
100
AcDbEntity
  8
0
  6
Continuous
 62
     7
370
    30
100
AcDbLine
 10
6.1693340313
 20
5.5958920499
 30
0.0
 11
6.1693340313
 21
5.5178920243
 31
0.0
  0
LINE
  5
44B
330
1F
100
AcDbEntity
  8
0
  6
Continuous
 62
     7
370
    30
100
AcDbLine
 10
6.1693340313
 20
5.5958920499
 30
0.0
 11
7.1073340421
 21
5.5958920499
 31
0.0
  0
LINE
  5
44C
330
1F
100
AcDbEntity
  8
0
  6
Continuous
 62
     7
370
    30
100
AcDbLine
 10
6.3883340214
 20
5.0018920276
 30
0.0
 11
6.1163340036
 21
5.0018920276
 31
0.0
  0
LINE
  5
44D
330
1F
100
AcDbEntity
  8
0
  6
Continuous
 62
     7
370
    30
100
AcDbLine
 10
7.1073340421
 20
5.5018920491
 30
0.0
 11
7.1603340698
 21
5.5018920491
 31
0.0
  0
LINE
  5
44E
330
1F
100
AcDbEntity
  8
0
  6
Continuous
 62
     7
370
    30
100
AcDbLine
 10
6.888334052
 20
5.0018920276
 30
0.0
 11
6.888334052
 21
4.9678920254
 31
0.0
  0
LINE
  5
44F
330
1F
100
AcDbEntity
  8
0
  6
Continuous
 62
     7
370
    30
100
AcDbLine
 10
6.1693340313
 20
5.5018920491
 30
0.0
 11
6.1163340036
 21
5.5018920491
 31
0.0
  0
LINE
  5
450
330
1F
100
AcDbEntity
  8
0
  6
Continuous
 62
     7
370
    30
100
AcDbLine
 10
7.1603340698
 20
5.0018920276
 30
0.0
 11
6.888334052
 21
5.0018920276
 31
0.0
  0
LINE
  5
451
330
1F
100
AcDbEntity
  8
0
  6
Continuous
 62
     7
370
    30
100
AcDbLine
 10
6.3883340214
 20
5.0018920276
 30
0.0
 11
6.3883340214
 21
4.9678920254
 31
0.0
  0
LINE
  5
452
330
1F
100
AcDbEntity
  8
0
  6
Continuous
 62
     7
370
    30
100
AcDbLine
 10
6.1693340313
 20
5.5178920243
 30
0.0
 11
6.1693340313
 21
5.5018920491
 31
0.0
  0
LINE
  5
453
330
1F
100
AcDbEntity
  8
0
  6
Continuous
 62
     7
370
    30
100
AcDbLine
 10
7.1073340421
 20
5.5018920491
 30
0.0
 11
7.1073340421
 21
5.5178920243
 31
0.0
  0
LINE
  5
454
330
1F
100
AcDbEntity
  8
0
  6
Continuous
 62
     7
370
    30
100
AcDbLine
 10
3.6013339837
 20
5.5018920491
 30
0.0
 11
3.6013339837
 21
4.9352343056
 31
0.0
  0
LINE
  5
455
330
1F
100
AcDbEntity
  8
0
  6
Continuous
 62
     7
370
    30
100
AcDbLine
 10
3.6013339837
 20
4.8871930561
 30
0.0
 11
3.6013339837
 21
4.8768920291
 31
0.0
  0
LINE
  5
456
330
1F
100
AcDbEntity
  8
0
  6
Continuous
 62
     7
370
    30
100
AcDbLine
 10
3.6013339837
 20
5.5018920491
 30
0.0
 11
3.5383340448
 21
5.5018920491
 31
0.0
  0
LINE
  5
457
330
1F
100
AcDbEntity
  8
0
  6
Continuous
 62
     7
370
    30
100
AcDbLine
 10
4.6753340034
 20
5.5018920491
 30
0.0
 11
4.6753340034
 21
4.9352343056
 31
0.0
  0
LINE
  5
458
330
1F
100
AcDbEntity
  8
0
  6
Continuous
 62
     7
370
    30
100
AcDbLine
 10
4.6753340034
 20
4.8871930561
 30
0.0
 11
4.6753340034
 21
4.8768920291
 31
0.0
  0
LINE
  5
459
330
1F
100
AcDbEntity
  8
0
  6
Continuous
 62
     7
370
    30
100
AcDbLine
 10
4.6753340034
 20
5.5018920491
 30
0.0
 11
4.7383340157
 21
5.5018920491
 31
0.0
  0
LINE
  5
45A
330
1F
100
AcDbEntity
  8
0
  6
Continuous
 62
     7
370
    30
100
AcDbLine
 10
3.6013339837
 20
5.0018920276
 30
0.0
 11
3.6163339971
 21
5.0018920276
 31
0.0
  0
LINE
  5
45B
330
1F
100
AcDbEntity
  8
0
  6
Continuous
 62
     7
370
    30
100
AcDbLine
 10
3.6163339971
 20
5.5018920491
 30
0.0
 11
3.6013339837
 21
5.5018920491
 31
0.0
  0
LINE
  5
45C
330
1F
100
AcDbEntity
  8
0
  6
Continuous
 62
     7
370
    30
100
AcDbLine
 10
4.6603340634
 20
5.0018920276
 30
0.0
 11
4.6753340034
 21
5.0018920276
 31
0.0
  0
LINE
  5
45D
330
1F
100
AcDbEntity
  8
0
  6
Continuous
 62
     7
370
    30
100
AcDbLine
 10
4.6753340034
 20
5.5018920491
 30
0.0
 11
4.6603340634
 21
5.5018920491
 31
0.0
  0
LINE
  5
45E
330
1F
100
AcDbEntity
  8
0
  6
Continuous
 62
     7
370
    30
100
AcDbLine
 10
4.6073340356
 20
5.5178920243
 30
0.0
 11
4.6073340356
 21
5.5958920499
 31
0.0
  0
LINE
  5
45F
330
1F
100
AcDbEntity
  8
0
  6
Continuous
 62
     7
370
    30
100
AcDbLine
 10
3.6693340248
 20
5.5958920499
 30
0.0
 11
4.6073340356
 21
5.5958920499
 31
0.0
  0
LINE
  5
460
330
1F
100
AcDbEntity
  8
0
  6
Continuous
 62
     7
370
    30
100
AcDbLine
 10
3.6693340248
 20
5.5958920499
 30
0.0
 11
3.6693340248
 21
5.5178920243
 31
0.0
  0
LINE
  5
461
330
1F
100
AcDbEntity
  8
0
  6
Continuous
 62
     7
370
    30
100
AcDbLine
 10
4.6603340634
 20
5.0018920276
 30
0.0
 11
4.2525741272
 21
5.0018920276
 31
0.0
  0
LINE
  5
462
330
1F
100
AcDbEntity
  8
0
  6
Continuous
 62
     7
370
    30
100
AcDbLine
 10
4.2356099765
 20
5.0018920276
 30
0.0
 11
4.0410581573
 21
5.0018920276
 31
0.0
  0
LINE
  5
463
330
1F
100
AcDbEntity
  8
0
  6
Continuous
 62
     7
370
    30
100
AcDbLine
 10
4.0240940066
 20
5.0018920276
 30
0.0
 11
3.6163339971
 21
5.0018920276
 31
0.0
  0
LINE
  5
464
330
1F
100
AcDbEntity
  8
0
  6
Continuous
 62
     7
370
    30
100
AcDbLine
 10
3.6163339971
 20
5.5018920491
 30
0.0
 11
3.6693340248
 21
5.5018920491
 31
0.0
  0
LINE
  5
465
330
1F
100
AcDbEntity
  8
0
  6
Continuous
 62
     7
370
    30
100
AcDbLine
 10
3.6693340248
 20
5.5178920243
 30
0.0
 11
3.6693340248
 21
5.5018920491
 31
0.0
  0
LINE
  5
466
330
1F
100
AcDbEntity
  8
0
  6
Continuous
 62
     7
370
    30
100
AcDbLine
 10
4.6073340356
 20
5.5018920491
 30
0.0
 11
4.6073340356
 21
5.5178920243
 31
0.0
  0
LINE
  5
467
330
1F
100
AcDbEntity
  8
0
  6
Continuous
 62
     7
370
    30
100
AcDbLine
 10
4.6073340356
 20
5.5018920491
 30
0.0
 11
4.6603340634
 21
5.5018920491
 31
0.0
  0
LINE
  5
468
330
1F
100
AcDbEntity
  8
0
  6
Continuous
 62
     7
370
    30
100
AcDbLine
 10
4.3883340456
 20
4.9678920254
 30
0.0
 11
4.3883340456
 21
4.9440546683
 31
0.0
  0
LINE
  5
469
330
1F
100
AcDbEntity
  8
0
  6
Continuous
 62
     7
370
    30
100
AcDbLine
 10
4.3883340456
 20
4.9309399598
 30
0.0
 11
4.3883340456
 21
4.8898920296
 31
0.0
  0
LINE
  5
46A
330
1F
100
AcDbEntity
  8
0
  6
Continuous
 62
     7
370
    30
100
AcDbLine
 10
4.3883340456
 20
4.8898920296
 30
0.0
 11
4.3263340685
 21
4.8898920296
 31
0.0
  0
LINE
  5
46B
330
1F
100
AcDbEntity
  8
0
  6
Continuous
 62
     7
370
    30
100
AcDbLine
 10
4.229214797
 20
4.8898920296
 30
0.0
 11
4.0647642035
 21
4.8898920296
 31
0.0
  0
LINE
  5
46C
330
1F
100
AcDbEntity
  8
0
  6
Continuous
 62
     7
370
    30
100
AcDbLine
 10
3.950333992
 20
4.8898920296
 30
0.0
 11
3.8883340149
 21
4.8898920296
 31
0.0
  0
LINE
  5
46D
330
1F
100
AcDbEntity
  8
0
  6
Continuous
 62
     7
370
    30
100
AcDbLine
 10
3.8883340149
 20
4.8898920296
 30
0.0
 11
3.8883340149
 21
4.9309399598
 31
0.0
  0
LINE
  5
46E
330
1F
100
AcDbEntity
  8
0
  6
Continuous
 62
     7
370
    30
100
AcDbLine
 10
3.8883340149
 20
4.9440546683
 30
0.0
 11
3.8883340149
 21
4.9678920254
 31
0.0
  0
LINE
  5
46F
330
1F
100
AcDbEntity
  8
0
  6
Continuous
 62
     7
370
    30
100
AcDbLine
 10
4.3883340456
 20
4.9678920254
 30
0.0
 11
4.3883340456
 21
5.0018920276
 31
0.0
  0
LINE
  5
470
330
1F
100
AcDbEntity
  8
0
  6
Continuous
 62
     7
370
    30
100
AcDbLine
 10
3.8883340149
 20
5.0018920276
 30
0.0
 11
3.8883340149
 21
4.9678920254
 31
0.0
  0
MTEXT
  5
472
330
1F
100
AcDbEntity
  8
FORMAT
100
AcDbMText
 10
5.4734829552
 20
3.0722134563
 30
0.0
 40
0.1458333333
 41
0.0
 71
     2
 72
     1
  1
TITUS ML-37, BORDER TYPE 1A, 3-SLOTS
  7
SLDTEXTSTYLE0
 73
     1
 44
1.0
  0
ENDSEC
  0
SECTION
  2
OBJECTS
  0
DICTIONARY
  5
C
330
0
100
AcDbDictionary
281
     1
  3
ACAD_GROUP
350
D
  3
ACAD_LAYOUT
350
1A
  3
ACAD_MLINESTYLE
350
17
  3
ACAD_PLOTSETTINGS
350
19
  3
ACAD_PLOTSTYLENAME
350
E
  0
DICTIONARY
  5
D
102
{ACAD_REACTORS
330
C
102
}
330
C
100
AcDbDictionary
281
     1
  0
DICTIONARY
  5
1A
102
{ACAD_REACTORS
330
C
102
}
330
C
100
AcDbDictionary
281
     1
  3
Layout1
350
1E
  3
Layout2
350
26
  3
Model
350
22
  0
DICTIONARY
  5
17
102
{ACAD_REACTORS
330
C
102
}
330
C
100
AcDbDictionary
281
     1
  3
Standard
350
18
  0
DICTIONARY
  5
19
102
{ACAD_REACTORS
330
C
102
}
330
C
100
AcDbDictionary
281
     1
  0
ACDBDICTIONARYWDFLT
  5
E
102
{ACAD_REACTORS
330
C
102
}
330
C
100
AcDbDictionary
281
     1
  3
Normal
350
F
100
AcDbDictionaryWithDefault
340
F
  0
LAYOUT
  5
1E
102
{ACAD_REACTORS
330
1A
102
}
330
1A
100
AcDbPlotSettings
  1

  2
none_device
  4

  6

 40
0.0
 41
0.0
 42
0.0
 43
0.0
 44
0.0
 45
0.0
 46
0.0
 47
0.0
 48
0.0
 49
0.0
140
0.0
141
0.0
142
1.0
143
1.0
 70
   688
 72
     0
 73
     0
 74
     5
  7

 75
    16
147
1.0
148
0.0
149
0.0
100
AcDbLayout
  1
Layout1
 70
     1
 71
     1
 10
0.0
 20
0.0
 11
12.0
 21
9.0
 12
0.0
 22
0.0
 32
0.0
 14
1.0000000000E+20
 24
1.0000000000E+20
 34
1.0000000000E+20
 15
-1.0000000000E+20
 25
-1.0000000000E+20
 35
-1.0000000000E+20
146
0.0
 13
0.0
 23
0.0
 33
0.0
 16
1.0
 26
0.0
 36
0.0
 17
0.0
 27
1.0
 37
0.0
 76
     0
330
1B
  0
LAYOUT
  5
26
102
{ACAD_REACTORS
330
1A
102
}
330
1A
100
AcDbPlotSettings
  1

  2
none_device
  4

  6

 40
0.0
 41
0.0
 42
0.0
 43
0.0
 44
0.0
 45
0.0
 46
0.0
 47
0.0
 48
0.0
 49
0.0
140
0.0
141
0.0
142
1.0
143
1.0
 70
   688
 72
     0
 73
     0
 74
     5
  7

 75
    16
147
1.0
148
0.0
149
0.0
100
AcDbLayout
  1
Layout2
 70
     1
 71
     2
 10
0.0
 20
0.0
 11
0.0
 21
0.0
 12
0.0
 22
0.0
 32
0.0
 14
0.0
 24
0.0
 34
0.0
 15
0.0
 25
0.0
 35
0.0
146
0.0
 13
0.0
 23
0.0
 33
0.0
 16
1.0
 26
0.0
 36
0.0
 17
0.0
 27
1.0
 37
0.0
 76
     0
330
23
  0
LAYOUT
  5
22
102
{ACAD_REACTORS
330
1A
102
}
330
1A
100
AcDbPlotSettings
  1

  2
none_device
  4

  6

 40
0.0
 41
0.0
 42
0.0
 43
0.0
 44
0.0
 45
0.0
 46
0.0
 47
0.0
 48
0.0
 49
0.0
140
0.0
141
0.0
142
1.0
143
1.0
 70
  1712
 72
     0
 73
     0
 74
     0
  7

 75
     0
147
1.0
148
0.0
149
0.0
100
AcDbLayout
  1
Model
 70
     1
 71
     0
 10
0.0
 20
0.0
 11
11.0
 21
8.5
 12
0.0
 22
0.0
 32
0.0
 14
0.0
 24
0.0
 34
0.0
 15
11.0
 25
8.5
 35
0.0
146
0.0
 13
0.0
 23
0.0
 33
0.0
 16
1.0
 26
0.0
 36
0.0
 17
0.0
 27
1.0
 37
0.0
 76
     0
330
1F
331
29
  0
MLINESTYLE
  5
18
102
{ACAD_REACTORS
330
17
102
}
330
17
100
AcDbMlineStyle
  2
Standard
 70
     0
  3

 62
   256
 51
90.0
 52
90.0
 71
     2
 49
0.5
 62
   256
  6
BYLAYER
 49
-0.5
 62
   256
  6
BYLAYER
  0
ACDBPLACEHOLDER
  5
F
102
{ACAD_REACTORS
330
E
102
}
330
E
  0
ENDSEC
  0
EOF
